Oops, an error
Loading. Please wait.

Wake Tab

version 1
version 1

Whole song

Interactive

41,109 views 219 this week
no commentswrite comment
1 2 3 4 5
excellent!
x 22
add to favorites
launch autoscroll
font size
0
reset
how to read this tab
guitar tuner
Tab Pro tools
  • play this tab
  • loop segment
  • change instrument
  • show fretboard
  • metronome
×
Best way to learn
"Wake"
Autoscroll
slow
fast
+/-
esc
set tempo
stop
Contributor
Difficulty
intermediate
Tab By Seth Haberman

INTRO / VERSE 2 / ENDING

E|--------------------------------------­------------|
B|--------------------------------------­------------|
G|--2--4--4--2--4--4--7--7--7--0--0--0--­0--0--0--0--|
D|--0--0--0--0--0--0--0--0--0--0--0--4--­4--2--2--0--|
A|--------------------------------------­------------|
E|--------------------------------------­------------|

E|--------------------------------------­------------|
B|--------------------------------------­------------|
G|--2--4--4--2--4--4--7--7--7--0--0--0--­0--0--0--0--|
D|--0--0--0--0--0--0--0--0--0--0--0--4--­4--2--2--0--|
A|--------------------------------------­------------|
E|--------------------------------------­------------|

E|--------------------------------------­------------|
B|--------------------------------------­------------|
G|--2--4--4--2--4--4--7--7--7--0--0--0--­0--0--0--0--|
D|--0--0--0--0--0--0--0--0--0--0--0--4--­4--2--2--0--|
A|--------------------------------------­------------|
E|--------------------------------------­------------|

E|--------------------------------------­-------------|
B|--------------------------------------­-------------|
G|--2--4--4--2--4--4--7--7--7--9--9--11-­-11--12--12--|
D|--0--0--0--0--0--0--0--0--0--0--0--0--­-0---0---0---|
A|--------------------------------------­-------------|
E|--------------------------------------­-------------|

PRE-CHORUS

E|--------------------------------------­--------------------------------|
B|--15------15------15------15------15--­----15------13------12--13------|
G|------12------12------12------12------­12------12------12---------------|
D|--------------------------------------­--------------------------------|
A|--------------------------------------­--------------------------------|
E|--------------------------------------­--------------------------------|

E|--------------------------------------­--------------------------------|
B|--15------15------15------15------15--­----15------13------12--13------|
G|------12------12------12------12------­12------12------12---------------|
D|--------------------------------------­--------------------------------|
A|--------------------------------------­--------------------------------|
E|--------------------------------------­--------------------------------|

E|--------------------------------------­--------------------------------|
B|--15------15------15------15------15--­----15------13------12--13------|
G|------12------12------12------12------­12------12------12---------------|
D|--------------------------------------­--------------------------------|
A|--------------------------------------­--------------------------------|
E|--------------------------------------­--------------------------------|

E|--------------------------------------­--------------------------------|
B|--15------15------15------15------15--­----15------15------15----------|
G|------12------12------12------12------­12------12------12------12-------|
D|--------------------------------------­--------------------------------|
A|--------------------------------------­--------------------------------|
E|--------------------------------------­--------------------------------|

CHORUS

E|--------------------------------------­------------|
B|--5--5--5--5--5--5--5--5--7--7--7--7--­7--7--7--7--|
G|--5--5--5--5--5--5--5--5--7--7--7--7--­7--7--7--7--|
D|--------------------------------------­------------|
A|--------------------------------------­------------|
E|--------------------------------------­------------|

E|--------------------------------------­--------------------|
B|--8--8--8--8--8--8--8--8--12--12--12--­12--12--12--12--12---|
G|--7--7--7--7--7--7--7--7--12--12--12--­12--12--12--12--12---|
D|--------------------------------------­--------------------|
A|--------------------------------------­--------------------|
E|--------------------------------------­--------------------|

E|--------------------------------------­------------|
B|--5--5--5--5--5--5--5--5--7--7--7--7--­7--7--7--7--|
G|--5--5--5--5--5--5--5--5--7--7--7--7--­7--7--7--7--|
D|--------------------------------------­------------|
A|--------------------------------------­------------|
E|--------------------------------------­------------|

E|--------------------------------------­--------------------|
B|--10--10--10--10--10--10--10--10--8--8­--8--8--8--8--8--8--|
G|--7---7---7---7---7---7---7---7---7--7­--7--7--7--7--7--7--|
D|--------------------------------------­--------------------|
A|--------------------------------------­--------------------|
E|--------------------------------------­--------------------|
comments
print report bad tab
I want to post or [tab]
guest
You may want to rate the tab now too:
select rating
Please do not post tabs as comments. Select "correction" instead!