Oops, an error
Loading. Please wait.

When The Fight Calls tab

4,465 views 36 this week
no commentswrite comment
1 2 3 4 5
x 8
add to favorites
×
Save as Personal and add changes to this tab that will be seen only by you. Learn more ›
×
You can save this tab as Personal to edit and correct it or add notes. All changes will be seen only by you. Learn more »
launch autoscroll
font size
0
reset
how to read this tab
guitar tuner
edit
Autoscroll
slow
fast
+/-
esc
set tempo
stop
Author
Hillsong Young & Free Tabs: Written by Brian Allen E.

Title: When The Fight Calls
Album: Youth Revival
Artist: Hillsong Young & Free

**THIS IS NOT AN OFFICIAL TAB**

This was all done by ear, Please comment down any mistakes below.

Tuning: Standard EADGBE

You may want to play this along whilst someone plays the chords. 

INTRO:
e|----------------------------------------------------------------------|
B|-10--8---5-----------5------------------------------------------------|
G|----------------5h7-------7---5---2-----2p0---------------------------|
D|----------------------------------------------------------------------|
A|-8---7---3----------------5-------0--0--------------------------------|
E|----------------------------------------------------------------------|

e|----------------------------------------------------------------------|
B|-10--8---5-----------5-------5----------------------------------------|
G|----------------5h7-------7------4------------------------------------|
D|----------------------------------------------------------------------|
A|-8--(7)--3----------------5-------------------------------------------|
E|----------------------------------------------------------------------|

VERSE: 

You do not need to play the ghost notes

e|----------------------------------------------------------------------|
B|-10--8---5----------(5)-----------------------------------------------|
G|---------------(5h7)------7---5---2-----------------------------------|
D|----------------------------------------------------------------------|
A|-8---7---3----------------5-------0-----------------------------------|
E|----------------------------------------------------------------------|

e|----------------------------------------------------------------------|
B|-10--8---5---------------------8--------------------------------------|
G|--------------------------4/5-----------------------------------------| x3
D|----------------------------------------------------------------------|
A|-8--(7)--3------------------------------------------------------------|
E|----------------------------------------------------------------------|

CHORUS:

e|----------------------------------------------------------------------|
B|-10--8---5-----------------------5------------------------------------|
G|--------------------------7-------------------------------------------|
D|----------------------------------------------------------------------| x4
A|-8--(7)--3----------------5-------------------------------------------|
E|----------------------------------------------------------------------|

INTERLUDE:

e|----------------------------------------------------------------------|
B|-10--8---5----------(5)-----------------------------------------------|
G|---------------(5h7)------7---5---2-----------------------------------|
D|----------------------------------------------------------------------|
A|-8---7---3----------------5-------0-----------------------------------|
E|----------------------------------------------------------------------|

VERSE 2:

e|----------------------------------------------------------------------|
B|-10--8---5-----------5------------------------------------------------|
G|----------------5h7-------7---5---2-----------------------------------|
D|----------------------------------------------------------------------|
A|-8---7---3----------------5-------0-----------------------------------|
E|----------------------------------------------------------------------|

e|----------------------------------------------------------------------|
B|-10--8---5-----------5--------5---8-----------------------------------|
G|----------------5h7-------7-------------------------------------------| 
D|----------------------------------------------------------------------| x3
A|-8---7---3----------------5-------------------------------------------|
E|----------------------------------------------------------------------|

You get the idea, each bar basically starts off the same but the ending is changed around each time.

************************************

| x   Dead note
| g   Grace note
| (n) Ghost note
| h   Hammer-on
| p   Pull-off
| r   Release
| >   Accented note
| t   Tapping
| b   Bend
| br  Bend release
| pb  Pre-bend
| pbr Pre-bend release
| /   Slide up
| \   Slide down
| ~   Vibrato
| s   Slap
| P   Pop
| PM  Palm mute
| TR  Trill
| N   Tremolo

************************************

            
            
Suggest correction
Creating personal tab
Creating personal tab
You can edit any tab online and save it as your Personal.

You can edit, replace or remove any tab part or add personal notes – all changes will be seen only by you.

Personal tabs can be accessed anytime from any device, even offline.
Learn more »
comments
print report bad tab
guest
You may want to rate the tab now too:
select rating
Wanna post a correction for this tab? Suggest correction