Oops, an error
Loading. Please wait.

All Day Tab

version 1
version 1

Whole song

Interactive

9,282 views 1 this week
1 commentread comment
1 2 3 4 5
worth learning
x 4
add to favorites
launch autoscroll
font size
0
reset
how to read this tab
guitar tuner
Autoscroll
slow
fast
+/-
esc
set tempo
stop
Help us to improve Ultimate-Guitar.com Take our survey!
×
Contributor
-------------------------------------------------------------------------
                           Hillsongs- All day
-------------------------------------------------------------------------
Band: Hillsongs
Song: All day
Album: United
Tabber: [stickboy_254]

Bass tuning: E A D G

 Intro/verse: figure out how to paly it yourself
G----------------------------------------------------------------------------|
D----------------------6-----------------------------------------------------|
A------------------7------7---------6H7--------2--1--------------------------|
E-----4-------7------------------7------------2------------------------------|

Pre- chorus:

G-----------------------------------------------------------------------|
D-----------------------------------------------------------------------|
A-------------------2---------------------------------------------------|
E------4----0--------------2--------------------------------------------|


Chorus:

G------------------------------------------------------------------------|
D------------------------------------------------------------------------|
A------2--------2----------2---------------------------------------------|
E----------0---------2----------0------4----2----------------------------|
All day, All day now.............................

Bridge:

G-----------------------------------------------------------|
D-----------------------------------------------------------|
A--4----------7---X3--------4--------7------------2---X1----|
E-----------------------------------------------------------|
                            ........i pay that you would save them to.

there you go , the songs all there just figure out the order yourself!!!!
comments
print report bad tab
1 comment total.
0 reply
kaotic_baller89 77 wrote on November 15 2004, 12:00 am

G--------------------------1-----------------------------------------|
D----------------------22-------2----------1-2-----------------------|
A--------------1-2-------------------22-------------------2-1--------|
E-----44-------------------------------------------22----------------|

this way is much easier
or..

G--------------------------------------------------------------------|
D----------------6---------------------------------------------------|
A------------77-----7---------6-7-----------2-1----------------------|
E-44-----67----------------77------------22--------------------------|

I find the Top one easier

I want to post or [tab]
guest
You may want to rate the tab now too:
select rating
Please do not post tabs as comments. Select "correction" instead!