Oops, an error
Loading. Please wait.

Arms Open Wide Tab

version 2
version 2

Whole song

750 views 1 this week
no commentswrite comment
1 2 3 4 5
3 more votes to show rating
add to favorites
launch autoscroll
font size
0
reset
how to read this tab
guitar tuner
Autoscroll
slow
fast
+/-
esc
set tempo
stop
Help us to improve Ultimate-Guitar.com Take our survey!
×
Author
"Ooooh, here i stand, arms open wide"
--------------------------------------------------|
--------------------------------------------------|
------------------2---2-----2---2-----2---2-------|
------5---5------2---2-----2---2-----2---2--------|
-----5---5-----0---0-----0---0-----0---0----------|
---3---3------------------------------------------|

"Ooooh, i am yours, and you are mine"
--------------------------------------------------|
--------------------------------------------------|
--------------------2---2------2---2--------------|
------5---5--------2---2-----2---2----------------|
-----5---5-------0---0-----0---0------5--4--------|
---3---3------------------------------------------|

"Jesus"
------0--------5-|
---3-----2--3----|
---------------2-|
-----------------|
-----------------|
-----------------|

"ooooooooooooooh"
----------------------------------------------------------------------|
----------------------------------------------------------------------|
---12--------11---------14---------9---------12---------11---------14-|
----------------------------------------------------------------------|
----------------------------------------------------------------------|
----------------------------------------------------------------------|
Suggest correction
Give kudos to tab author, rate the tab!
1 2 3 4 5
comments
print report bad tab
guest
You may want to rate the tab now too:
select rating
Wanna post a correction for this tab? Suggest correction