Oops, an error
Loading. Please wait.

Blessed tab

18,892 views 9 this week
no commentswrite comment
1 2 3 4 5
2 more votes to show rating
add to favorites
×
Save as Personal and add changes to this tab that will be seen only by you. Learn more ›
×
You can save this tab as Personal to edit and correct it or add notes. All changes will be seen only by you. Learn more »
launch autoscroll
font size
0
reset
how to read this tab
guitar tuner
edit
Autoscroll
slow
fast
+/-
esc
set tempo
stop
Author
BLESSED
HILLSONG AUSTRALIA
From the Album: Blessed
Tabs by Rayfox2005
It's not 100% accurate, just my own interpretation
For comments and critics pls. e-mail me:super_rayfox@yahoo.com
Regards to all Christian Rockers of South Cotabato

GUITAR 1: Accoustic Guitar
GUITAR 2: Electric Guitar 
GUITAR 3: Electric Guitar
All standard tuning

INTRO:
KEYBOARD: G
        : Or you can swell your volume here same chords
Guitar 1:
     D/C         C     D/C         C
|----2--2--2--2--0--0--2--2--2--2--0--0--------------|
|----3--3--3--3--1--1--3--3--3--3--1--1--------------|
|----2--2--2--2--0--0--2--2--2--2--0--0--------------|
|----x--x--x--x--2--2--x--x--x--x--2--2--------------|
|----3--3--3--3--3--3--3--3--3--3--3--3--------------|
|----------------------------------------------------|
|Guitar 2:                                           |
|----------------------------------------------------|
|----7--x--x--7--8--8--7--x--x--7--8--8--------------|
|----7--x--x--7--5--5--7--x--x--7--7--7--------------|
|----------------------------------------------------|
|----------------------------------------------------|
|----------------------------------------------------|
Guitar 1:
     G/D         G     G/D         G
|----2--2--2--2--3--3--2--2--2--2--3--3--------------|
|----3--3--3--3--3--3--3--3--3--3--3--3--------------|
|----2--2--2--2--0--0--2--2--2--2--0--0--------------|
|----0--0--0--0--0--0--0--0--0--0--0--0--------------|
|----x--x--x--x--2--2--x--x--x--x--2--2--------------|
|----3--3--3--3--3--3--3--3--3--3--3--3--------------|
|Guitar 2:                                           |
|----------------------------------------------------|
|----7--x--x--7--8--8--7--x--x--7--8--8--------------|
|----7--x--x--7--7--7--7--x--x—-7--7--7--------------|
|----------------------------------------------------|
|----------------------------------------------------|
|----------------------------------------------------|
|Guitar 3:                                           |              
|----------------7-----------------------------------|
|-------3~-------------------------------------------|
|----2-----------------------------------------------|
|----------------------------------------------------|
|----------------------------------------------------|
|----------------------------------------------------|
Guitar 1:
     D/C         C     D/C         C
|----2--2--2--2--0--0--2--2--2--2--0--0--------------|
|----3--3--3--3--1--1--3--3--3--3--1--1--------------|
|----2--2--2--2--0--0--2--2--2--2--0--0--------------|
|----x--x--x--x--2--2--x--x--x--x--2--2--------------|
|----3--3--3--3--3--3--3--3--3--3--3--3--------------|
|----------------------------------------------------|
|Guitar 2:                                           |
|----------------------------------------------------|
|----7--x--x--7--8--8--7--x--x--7--8--8--------------|
|----7--x--x--7--5--5--7--x--x--7--8--8--------------|
|----------------------------------------------------|
|----------------------------------------------------|
|----------------------------------------------------|



|Guitar 3:                                           |
|----------------------------------------------------|
|--------------------------3------3------------------|
|----------------------2------2------2---0-----------|
|-------------------------------------------0--------|
|----------------------------------------------------|
|----------------------------------------------------|
Guitar 1:
     G/D         G     G/D         G
|----2--2--2--2--3--3--2--2--2--2--3--3--------------|
|----3--3--3--3--3--3--3--3--3--3--3--3--------------|
|----2--2--2--2--0--0--2--2--2--2--0--0--------------|
|----0--0--0--0--0--0--0--0--0--0--0--0--------------|
|----x--x--x--x--2--2--x--x--x--x--2--2--------------|
|----3--3--3--3--3--3--3--3--3--3--3--3--------------|
|Guitar 2:                                           |
|----------------------------------------------------|
|----7--x--x--7--8--8--7--x--x--7--7--7--------------|
|----7--x--x--7--7--7--7--x--x—-7--7--7--------------|
|----------------------------------------------------|
|----------------------------------------------------|
|----------------------------------------------------|

CHOIR INTRO:
Guitar 1:
     D/C         C     D/C         C
|----2--2--2--2--0--0--2--2--2--2--0--0--0--0--0--0--|
|----3--3--3--3--1--1--3--3--3--3--1--1--1--1--1--1--|
|----2--2--2--2--0--0--2--2--2--2--0--0--0--0--0--0--|
|----x--x--x--x--2--2--x--x--x--x--2--2--2--2--2--2--|
|----3--3--3--3--3--3--3--3--3--3--3--3--3--3--3--3--|
|----------------------------------------------------|
|Guitar 2:                                           |
|----------------------------------------------------|
|----7--x--x--7--8--8--7--x--x--7--8--8--------------|
|----7--x--x--7--5--5--7--x--x--7--5--5--------------|
|----------------------------------------------------|
|----------------------------------------------------|
|----------------------------------------------------|
   Blessed are those who dwell in Your house, they are 
Guitar 1:
     G/D         G     G/D         G
|----2--2--2--2--3--3--2--2--2--2--3--3--3--3--3--3--|
|----3--3--3--3--3--3--3--3--3--3--3--3--3--3--3--3--|
|----2--2--2--2--0--0--2--2--2--2--0--0--0--0--0--0--|
|----0--0--0--0--0--0--0--0--0--0--0--0--0--0--0--0--|
|----x--x--x--x--2--2--x--x--x--x--2--2--2--2--2--2--|
|----3--3--3--3--3--3--3--3--3--3--3--3--3--3--3--3--|
|Guitar 2:                                           |
|----------------------------------------------------|
|----7--x--x--7--8--8--7--x--x--7--7--7--------------|
|----7--x--x--7--7--7--7--x--x—-7--7--7--------------|
|----------------------------------------------------|
|----------------------------------------------------|
|----------------------------------------------------|
|Guitar 3:                                           |
|----------------------------------------------------|
|-----------------3----------------------------------|
|--------------2-------------------------------------|
|----------------------------------------------------|
|----------------------------------------------------|
|----------------------------------------------------|
 ever praising You
Guitar 1:
     D/C         C     D/C         C
|----2--2--2--2--0--0--2--2--2--2--0--0--0--0--0-----|
|----3--3--3--3--1--1--3--3--3--3--1--1--1--1--1-----|
|----2--2--2--2--0--0--2--2--2--2--0--0--0--0--0-----|
|----x--x--x--x--2--2--x--x--x--x--2--2--2--2--2-----|
|----3--3--3--3--3--3--3--3--3--3--3--3--3--3--3-----|
|----------------------------------------------------|

|Guitar 2:                                           |
|----------------------------------------------------|
|----7--x--x--7--8--8--7--x--x--7--8--8--------------|
|----7--x--x--7--5--5--7--x--x--7--8--8--------------|
|----------------------------------------------------|
|----------------------------------------------------|
|----------------------------------------------------|
| Guitar 3                                           |
|---------------------------------7—7h8-7h8----------|
|---------------------------------8---8---8----------|
|----------------------------------------------------|
|----------------------------------------------------|
|----------------------------------------------------|
|----------------------------------------------------|
 Blessed are those whose strength is in You
Guitar 1:
  Am7                         Dsus4  D    G
|-0--0--0--0---0---0---0---0---3--3--2--2--3--3--3--3-3-|
|-1--1--1--1---1---1---1---1---3--3--3--3--3--3--3--3-3-|
|-0--0--0--0---0---0---0---0---2--2--2--2--0--0--0--0-0-|
|-2--2--2--2---2---2---2---2---0--0--0--0--0--0--0--0-0-|
|-0--0--0--0---0---0---0---0---------------2--2--2--2-2-|
|------------------------------------------3--3--3--3-3-|
              Whose hearts are set on our God
BAND IN (INSTRUMENTAL)
       D                     A
|-------10--10--9--9--7--7-----9--9--7--7--5--5--------|
|--------x---x--x--x--x--x-----x--x--x--x—-x—-x--------|
|-----7/11--11--9--9--7--7---6/9--9--7--7--6--6--------|
|-----0--0---0--0--0--0--0---0-0--0--0--0--0--0--------|
|------------------------------------------------------|
|------------------------------------------------------|
       Bm7                   G  
|-------10--10--9--9--7--7-----------------------------|
|--------x---x--x--x--x--x---8--8--7--7--8--8----------|
|-----7/11--11--9--9--7--7---x--x--x--x--x--x----------|
|-----0--0---0--0--0--0--0---5--5--4--4--5--5----------|
|------------------------------------------------------|
|------------------------------------------------------|
      D/F#                      Asus4    A
|-------10--10--9--9--7--7-----9--9--7--7--5--5--------|
|--------x---x--x--x--x--x-----x--x--x--x—-x—-x--------|
|-----7/11--11--9--9--7--7---6/9--9--7--7--6--6--------|
|-----0--0---0--0--0--0--0---0-0--0--0--0--0--0--------|
|------------------------------------------------------|
|------------------------------------------------------|
       Bm7                            G
|-------10--10--9--9--7--7-----------------------------|
|--------x---x--x--x--x--x--------------8--------------|
|-----7/11--11--9--9--7--7--------------7--------------|
|-----0--0---0--0--0--0—0---------------5--------------|
|---------------------------------------5--------------|
|------------------------------------------------------|
VERSE:
     G                    A/G            G          
|----3--3--3--3----------0---0---0---0---3--3--3—-3---|
|----3--3--3--3----------2---2---2---2---3--3--3--3---|
|----4--4--4--4----------2---2---2---2---0--0--0--0---|
|----5--5--5--5----------2---2---2---2---0--0--0--0---|
|----5--5--5--5----------x---x---x---x---2--2--2--2---|
|----3--3--3--3----------3---3---3---3---3--3--3--3---|
     Blessed are those who dwell in Your house
     G           A/D      D
|----3--3--------0--0--0---2--2-—2-—2-----------------|
|----3--3--------2--2--2---3--3--3--3-----------------|
|----0--0--------2--2--2---2--2--2--2-----------------|
|----0--0--------2--2--2---0--0--0--0-----------------|
|----2--2--------5--5--5------------------------------|
|----3--3---------------------------------------------|
   They are ever praising You
Guitar 1:
     D                   G/A           G          Em7
|----2--2--2--2----------0--0--0--0----3--3--3--3-----|
|----3--3--3--3----------2--2--2--2----3--3--3—-3---3-|
|----2--2--2--2----------2--2--2--2----0--0--0—-0---0-|
|----0--0--0--0----------2--2--2--2----0--0--0--0---0-|
|------------------------x--x--x--x----2--2--2--2---2-|
|------------------------3--3--3--3----3--3--3--3---0-|
Guitar 2:                                       
|-----------------------------------------------------|
|---------------------------------------------------3-|
|---------------------------------------------------0-|
|------------------------------------------4/5--4---0-|
|---------------------------------------5-------------|
|-----------------------------------------------------|
  Blessed are those whose strength is in You
    Em7              Asus4  A     D
|--------------------------0--0--2—-2-----------------|
|----3---3---3---3---3--3--2--2--3--3-----------------|
|----0---0---0---0---2--2--2--2--2--2-----------------|
|----0---0---0---0---2--2--2--2--0--0-----------------|
|----2---2---2---2---0--0--0--0-----------------------|
|----0---0---0---0------------------------------------|
   Whose hearts are set on our God
     G                    A/G            G          
|----3--3--3--3----------0---0---0---0---3--3--3—-3---|
|----3--3--3--3----------2---2---2---2---3--3--3--3---|
|----4--4--4--4----------2---2---2---2---0--0--0--0---|
|----5--5--5--5----------2---2---2---2---0--0--0--0---|
|----5--5--5--5----------x---x---x---x---2--2--2--2---|
|----3--3--3--3----------3---3---3---3---3--3--3--3---|
     Blessed are those who dwell in Your house
     G           A/D      D
|----3--3--------0--0--0---2--2-—2-—2-----------------|
|----3--3--------2--2--2---3--3--3--3-----------------|
|----0--0--------2--2--2---2--2--2--2-----------------|
|----0--0--------2--2--2---0--0--0--0-----------------|
|----2--2--------5--5--5------------------------------|
|----3--3---------------------------------------------|
|Guitar 2:
|----------------------------------------2--2---------|
|-------------------------3--3--3--3-p5--3—-3---------|
|-------------------------2--2--2--2--2--2--2---------|
|-------------------------0--0--0--0--0--0--0---------|
|-----------------------------------------------------|
|-----------------------------------------------------|
   They are ever praising You
Guitar 1:
     D                   G/A           G          Em7
|----2--2--2--2----------0--0--0--0----3--3--3--3-----|
|----3--3--3--3----------2--2--2--2----3--3--3—-3---3-|
|----2--2--2--2----------2--2--2--2----0--0--0—-0---0-|
|----0--0--0--0----------2--2--2--2----0--0--0--0---0-|
|------------------------x--x--x--x----2--2--2--2---2-|
|------------------------3--3--3--3----3--3--3--3---0-|
Guitar 2:                                       
|-----------------------------------------------------|
|---------------------------------------------------3-|
|---------------------------------------------------0-|
|------------------------------------------4/5--4---0-|
|---------------------------------------5-------------|
|-----------------------------------------------------|
  Blessed are those whose strength is in You
    Em7
|--------------------------0--0--2—-2-----------------|
|----3---3---3---3---3--3--2--2--3--3-----------------|
|----0---0---0---0---2--2--2--2--2--2-----------------|
|----0---0---0---0---2--2--2--2--0--0-----------------|
|----2---2---2---2---0--0--0--0-----------------------|
|----0---0---0---0------------------------------------|
   Whose hearts are set on our God
PRE-CHORUS:
    D              G            A 
|---2--2--2--2--3--3--3--3---0--0--0—-0--------------|
|---3--3--3--3--3--3--3--3---2--2--2--2--------------|
|---2--2--2--2--0--0--0--0---2--2--2--2--------------|
|---0--0--0--0--0--0--0--0---2--2--2--2--------------|
|---------------2--2--2--2---0--0--0--0--------------|
|---------------3--3--3--3---------------------------|
   We will go from strength to strength
                 G/B              A
|----0---0-------3---3---3---3---0---0--0---0--------|
|----2---2-------3---3---3---3---2---2--2---2--------|
|----2---2-------0---0---0---0---2---2--2---2--------|
|----2---2-------0---0---0---0---2---2--2---2--------|
|----0---0-------2---2---2---2---0---0--0---0--------|
|----------------------------------------------------|
'till we see You face You face to face
CHORUS:
Guitar 1:
   D           Asus4  A  Bm7        G
|--2--2--2--2--0--0--0--0--2--2--2--3--3--3--3--------|
|--3--3--3--3--3--3--2--2--3--3--3--3--3--3--3--------|
|--2--2--2--2--2--2--2--2--2--2--2--0--0--0--0--------|
|--0--0--0--0--2--2--2--2--4--4--4--0--0--0--0--------|
|--------------0--0--0--0--2--2--2--2--2--2--2--------|
|-----------------------------------3--3--3--3--------|
Guitar 2:
       D                     A
|-------10--10--9--9--7--7-----9--9--7--7--5--5--------|
|--------x---x--x--x--x--x-----x--x--x--x—-x—-x--------|
|-----7/11--11--9--9--7--7---6/9--9--7--7--6--6--------|
|-----0--0---0--0--0--0--0---0-0--0--0--0--0--0--------|
|------------------------------------------------------|
|------------------------------------------------------|
       Bm7                   G  
|-------10--10--9--9--7--7-----------------------------|
|--------x---x--x--x--x--x---8--8--7--7--8--8----------|
|-----7/11--11--9--9--7--7---x--x--x--x--x--x----------|
|-----0--0---0--0--0--0--0---5--5--4--4--5--5----------|
|------------------------------------------------------|
|------------------------------------------------------|
   Hear our prayer, O Lord God Almighty
Guitar 1:
    D/F#            Asus4       Bm7         G 
|-----------------0--0--0--0---2--2--2--2--3--3--3--3-|
|----3---3--3--3--3--3--3--3---3--3--3--3--3--3--3--3-|
|----2---2--2--2--2--2--2--2---2--2--2--2--0--0--0--0-|
|----0---0--0--0--2--2--2--2---4--4--4--4--0--0--0--0-|
|----0---0--0--0--0--0--0--0---2--2--2--2--2--2--2--2-|
|----2---2--2--2---------------------------3--3--3--3-|
   Come blessed our land as we seek You, worship You.
Guitar 2:
      D/F#                      Asus4    A
|-------10--10--9--9--7--7-----9--9--7--7--5--5--------|
|--------x---x--x--x--x--x-----x--x--x--x—-x—-x--------|
|-----7/11--11--9--9--7--7---6/9--9--7--7--6--6--------|
|-----0--0---0--0--0--0--0---0-0--0--0--0--0--0--------|
|------------------------------------------------------|
|------------------------------------------------------|
       Bm7                            G
|-------10--10--9--9--7--7-----------------------------|
|--------x---x--x--x--x--x--------------8--------------|
|-----7/11--11--9--9--7--7--------------7--------------|
|-----0--0---0--0--0--0—0---------------5--------------|
|---------------------------------------5--------------|
|------------------------------------------------------|





INSTRUMENTAL:
        D         A/C#     Bm7     G
|---------------------------------------------------|
|---------------------------------------------------|
|---x--x-9/10\9----7---7---6-6-7---7----------------|
|--------x--x-x----x---x---x-x-x---x----------------|
|---x--x—7/ 9\7----5---5---4—4/5---5----------------|
|---------------------------------------------------|
        D         A/C#     Bm7     G
|---------------------------------------------------|
|---------------------------------------------------|
|---x--x-9/10\9----7---7---6-6-7---7----------------|
|--------x--x-x----x---x---x-x-x---x----------------|
|---x--x—7/ 9\7----5---5---4—4/5---5----------------|
|---------------------------------------------------|
REPEAT VERSE: only once
REPEAT PRE-CHORUS:
REPEAT CHORUS: twice then
AD LIB:
   D            A/C#        Bm7               G
|---------------------------------------------------|
|----5---5---5—7b8r5-5-5-12—14b15r14----------12~/--|
|------------------------------------14--14---------|
|-/7---7---7----------------------------------------|
|---------------------------------------------------|
|---------------------------------------------------|
   D            A/C#             Bm7
|---------------------------10----9~----------------|
|------5-----7~--5---5------------------------------|
|---7-----7--------7----/7-----7--------------------|
|---------------------------------------------------|
|---------------------------------------------------|
|---------------------------------------------------|
                                     G
|---------------------------------------------------|
|----15-14-12---------------------------------------|
|-------------14-12-11------------------------------|
|----------------------14-12-11---------------------|
|-------------------------------14-12---------------|
|---------------------------------------------------|

|---------------------------------10--12—-10---14~\-|
|---------------------------7~/10-------------------|
|--------------------7--9---------------------------|
|----------12-12------------------------------------|
|---10/12-------------------------------------------|
|---------------------------------------------------|
BRIDGE: Guitar 2 play some notes here w/ whammy pedal
  D               A/C#
|--2---2--2--2-----0---0---0---0--------------------|
|--3---3--3--3-----2---2---2---2--------------------|
|--2---2--2--2-----2---2---2---2--------------------|
|--0---0--0--0-----2---2---2---2--------------------|
|------------------4---4---4---4--------------------|
|---------------------------------------------------|
  For You are Holy, for You are Holy
  Bm7                     G
|--2---2--2---2---------3--3--3--3------------------|
|--3---3--3---3---------3--3--3--3------------------|
|--2---2--2---2---------0--0--0--0------------------|
|--4---4--4---4---------0--0--0--0------------------|
|--2---2--2---2---------2--2--2--2------------------|
|-----------------------3--3--3--3------------------|
  For You are Holy Lord
 





GUITAR 2 ENTER HERE:
   D               A/C#
|--2---2--2--2-----0---0---0---0--------------------|
|--3---3--3--3-----2---2---2---2--------------------|
|--2---2--2--2-----2---2---2---2--------------------|
|--0---0--0--0-----2---2---2---2--------------------|
|------------------4---4---4---4--------------------|
|---------------------------------------------------|
|Guitar 2:                                          |
|-------------------------------10--9--9--9--9------|
|------------7--7--7--7--7--7----7--7--7--7--7------|
|------------7--7--7--7--7—-7-----------------------|
|---------------------------------------------------|
|---------------------------------------------------|
|---------------------------------------------------|
  For You are Holy, for You are Holy
  Bm7                     G
|--2---2--2---2---------3--3--3--3------------------|
|--3---3--3---3---------3--3--3--3------------------|
|--2---2--2---2---------0--0--0--0------------------|
|--4---4--4---4---------0--0--0--0------------------|
|--2---2--2---2---------2--2--2--2------------------|
|-----------------------3--3--3--3------------------|
|Guitar 2:                                          |
|---------------------------------------------------|
|--------------------10-10-10-10-10-10--------------|
|---------------------7--7—-7--7--7--7--------------|
|---------------------------------------------------|
|---------------------------------------------------|
|---------------------------------------------------|
  For You are Holy Lord
Guitar 1:
  D               A/C#
|--2---2--2--2-----0---0---0---0--------------------|
|--3---3--3--3-----2---2---2---2--------------------|
|--2---2--2--2-----2---2---2---2--------------------|
|--0---0--0--0-----2---2---2---2--------------------|
|------------------4---4---4---4--------------------|
|---------------------------------------------------|
  For You are Holy, for You are Holy
Guitar 1:
  Bm7                     G
|--2---2--2---2---------3--3--3--3------------------|
|--3---3--3---3---------3--3--3--3------------------|
|--2---2--2---2---------0--0--0--0------------------|
|--4---4--4---4---------0--0--0--0------------------|
|--2---2--2---2---------2--2--2--2------------------|
|-----------------------3--3--3--3------------------|
  For You are Holy Lord
Guitar 2:
|---------------------------------------------------|
|---------------------------------------------------|
|-----------------------7-----7---9--7--------------|
|--------------------7-----7----7-------------------|
|---------------------------------------------------|
|---------------------------------------------------|
  D               A/C#
|--2---2--2--2-----0---0---0---0--------------------|
|--3---3--3--3-----2---2---2---2--------------------|
|--2---2--2--2-----2---2---2---2--------------------|
|--0---0--0--0-----2---2---2---2--------------------|
|------------------4---4---4---4--------------------|
|---------------------------------------------------|
  For You are Holy, for You are Holy
  Bm7                     G
|--2---2--2---2---------3--3--3--3------------------|
|--3---3--3---3---------3--3--3--3------------------|
|--2---2--2---2---------0--0--0--0------------------|
|--4---4--4---4---------0--0--0--0------------------|
|--2---2--2---2---------2--2--2--2------------------|
|-----------------------3--3--3--3------------------|
  For You are Holy Lord

REPEAT CHORUS:
 2ND TIME WITH BRIDGE LYRICS.
..For You are Holy, for You are Holy
  For You are Holy Lord

END with G scale: not 100 % correct
|--3--5------------------------10-9-10p9-------------|
|------------5--3-----------------------12--10-------|
|-----------------4--2-------2-----------------12—11-|
|----------------------5--4--------------------------|
|----------------------------------------------------|
|----------------------------------------------------|

|----------------------------------------------------|
|----------------------------------------------------|
|--11-10-9-----9-------------------------------------|
|----------12----12~---------------------------------|
|----------------------------------------------------|
|----------------------------------------------------|

Regards to my co-member SWITCHBLADE BAND: 
Toto, Tata, Kenneth, Totong, Ryan, Ian and Sharon..

            
            
Suggest correction
Creating personal tab
Creating personal tab
You can edit any tab online and save it as your Personal.

You can edit, replace or remove any tab part or add personal notes – all changes will be seen only by you.

Personal tabs can be accessed anytime from any device, even offline.
Learn more »
Give kudos to tab author, rate the tab!
1 2 3 4 5
comments
print report bad tab
guest
You may want to rate the tab now too:
select rating
Wanna post a correction for this tab? Suggest correction