Oops, an error
Loading. Please wait.

Cornerstone tab

version 2
version 2

Whole song

  • This is my rendition based on the worship team res... Show more
343 views 9 this week
no commentswrite comment
1 2 3 4 5
3 more votes to show rating
add to favorites
×
Save as Personal and add changes to this tab that will be seen only by you. Learn more ›
×
You can save this tab as Personal to edit and correct it or add notes. All changes will be seen only by you. Learn more »
launch autoscroll
font size
0
reset
how to read this tab
guitar tuner
edit
Autoscroll
slow
fast
+/-
esc
set tempo
stop
Author
Difficulty
About this tab version
This is my rendition based on the worship team resources where I currently worship. Much of the time I’m the only electric guitarist so I feel obligated to combine some of the Electric Guitar 1 and 2 parts. Really I just end up playing the most recognizable parts regardless if Electric 1 or 2. Enjoy and I’m certainly open to positive/productive feedback. Was this info helpful? Was this info helpful? Yes No
Key: C   BPM: 72                                                                       Tone: Clean/Distortion
Electric Guitar 2                                                                      Effects: Delay/Reverb

[Intro/Interlude]        
Clean Soft  Strum
Ring-out-------------------------------------|
        C2        Am7        F2         G                                                            
e|------3--|-------0--|-------0--|--------3----|
B|-----3---|------1---|------1---|-------3-----|
G|----0----|-----2----|-----2----|------0------|
D|---2-----|----2-----|----3-----|-----0-------|
A|--3------|---0------|----------|----2--------|
E|---------|----------|----------|---3---------|

[Verse 1]
    C                                  F                     G
    My hope is built on nothing less Than Jesus' blood and righteousness
e|---0-----------------|------------|-0---------------|------3----------|
B|---1-----------------|------------|-1---------------|------3----------|
G|---0-----------------|------------|-2---------------|------0----------|
D|---2-----------------|------------|-3---------------|------0----------|
A|---3-----------------|------------|-----------------|------2----------|
E|---------------------|------------|-----------------|------3----------|
    Am7                   Am/G             F          G           C
    I dare not trust the sweetest frame  But wholly trust is Jesus' name
e|--0-------------------|--0-----------|--0----------3--------|--0---------|
B|--1-------------------|--1-----------|--1----------3--------|--1---------|
G|--0-------------------|--0-----------|--2----------0--------|--0---------|
D|--2-------------------|--2-----------|--3----------0--------|--2---------|
A|--0-------------------|--0-----------|-------------2--------|--3---------|
E|----------------------|--3-----------|-------------3--------|------------|    

[Chorus 1]

    C/E     F     Am7     G     C/E        F             Am       G
    Christ  alone, Corner-stone Weak made strong in the Savior's love
e|---0------0-----0-----|-3------0-------|-0-------------0--------3---|
B|---1------1-----1-----|-3------1-------|-1-------------1--------3---|
G|---0------2-----0-----|-0------0-------|-2-------------0--------0---|
D|---2------3-----2-----|-0------2-------|-3-------------2--------0---|
A|---3------------0-----|-2------3-------|---------------0--------2---|
E|---0------------------|-3------0-------|------------------------3---|
    C/E          F     Am     G             C
    Through the storm He is  Lord Lord of  all
e|---0---------|-0-----0---|--3----------|--0------------|
B|---1---------|-1-----1---|--3----------|--1------------|
G|---0---------|-2-----0---|--0----------|--0------------| Soft Strum to next verse   
D|---2---------|-3-----2---|--0----------|--2------------|
A|---3---------|-------0---|--2----------|--3------------|
E|---0---------|-----------|--3----------|---------------|

    
[Verse 2]
Start Arpeggios 
    C                                     F                G
    When darkness seems to hide His face  I rest on His  un-changing grace
e|--0---------------------|-------------|-0--------------|-3--------------|
B|--1---------------------|-------------|-1--------------|-3--------------|
G|--0---------------------|-------------|-2--------------|-0--------------|
D|--2---------------------|-------------|-3--------------|-0--------------|
A|--3---------------------|-------------|----------------|-2--------------|
E|------------------------|-------------|----------------|-3--------------|

    Am                Am/G        F         G            C        F         G            C
  In every high and stormy gale My anchor holds within the veil My anchor holds within the veil
e|--0--------------|---0-------|--0---------3--------|---0-----|--0---------3---------|--0----|
B|--1--------------|---1-------|--1---------3--------|---1-----|--1---------3---------|--1----|
G|--0--------------|---0-------|--2---------0--------|---0-----|--2---------0---------|--0----|
D|--2--------------|---2-------|--3---------0--------|---2-----|--3---------0---------|--2----|
A|--0--------------|---0-------|------------2--------|---3-----|------------2---------|--3----|
E|-----------------|---3-------|------------3--------|---------|------------3---------|-------|


[Chorus 1]
Heavy w/Distortion
    C/E     F     Am7     G     C/E        F             Am       G
    Christ  alone, Corner-stone Weak made strong in the Savior's love
e|---0------0-----0-----|-3------0-------|-0-------------0--------3---|
B|---1------1-----1-----|-3------1-------|-1-------------1--------3---|
G|---0------2-----0-----|-0------0-------|-2-------------0--------0---|
D|---2------3-----2-----|-0------2-------|-3-------------2--------0---|
A|---3------------0-----|-2------3-------|---------------0--------2---|
E|---0------------------|-3------0-------|------------------------3---|
    C/E          F     Am     G             C
    Through the storm He is  Lord Lord of  all
e|---0---------|-0-----0---|--3----------|--0------------|
B|---1---------|-1-----1---|--3----------|--1------------|
G|---0---------|-2-----0---|--0----------|--0------------| Soft Strum to next verse   
D|---2---------|-3-----2---|--0----------|--2------------|
A|---3---------|-------0---|--2----------|--3------------|
E|---0---------|-----------|--3----------|---------------|


[Bridge]
Heavy w/Distortion
    Am                    F     G
    He is Lord  Lord of all
e|---0---|-----|-------|--0-----3--|
B|---1---|-----|-------|--1-----3--|
G|---0---|-----|-------|--2-----0--|
D|---2---|-----|-------|--3-----0--|
A|---0---|-----|-------|--------2--|
E|---0---|-----|-------|--------3--|


[Verse 3]
Start soft w/arpeggios then build
    C                                        F                   G
    When He shall come with trumpet sound    Oh may I then in Him be found
e|---0---------------------|--------------|--0----------------|--3--------|
B|---1---------------------|--------------|--1----------------|--3--------|
G|---0---------------------|--------------|--2----------------|--0--------|
D|---2---------------------|--------------|--3----------------|--0--------|
A|---3---------------------|--------------|-------------------|--2--------|
E|-------------------------|--------------|-------------------|--3--------|
   Am                        Am/G        F          G                C
   Dressed in His right-eous-ness alone    Faultless, stand before     the throne
e|--0-----------------------|-0--------|-0----------3-------------|--0---------|
B|--1-----------------------|-1--------|-1----------3-------------|--1---------|
G|--0-----------------------|-0--------|-2----------0-------------|--0---------|
D|--2-----------------------|-2--------|-3----------0-------------|--2---------|
A|--0-----------------------|-0--------|------------2-------------|--3---------|
E|--------------------------|-3--------|------------3-------------|------------|

            
            
Suggest correction
Creating personal tab
Creating personal tab
You can edit any tab online and save it as your Personal.

You can edit, replace or remove any tab part or add personal notes – all changes will be seen only by you.

Personal tabs can be accessed anytime from any device, even offline.
Learn more »
Give kudos to tab author, rate the tab!
1 2 3 4 5
comments
print report bad tab
guest
You may want to rate the tab now too:
select rating
Wanna post a correction for this tab? Suggest correction