Oops, an error
Loading. Please wait.

Faith bass

3,514 views 9 this week
1 commentread comment
1 2 3 4 5
3 more votes to show rating
add to favorites
×
Save as Personal and add changes to this tab that will be seen only by you. Learn more ›
×
You can save this tab as Personal to edit and correct it or add notes. All changes will be seen only by you. Learn more »
launch autoscroll
font size
0
reset
guitar tuner
edit
Autoscroll
slow
fast
+/-
esc
set tempo
stop
Author
This is my first tab so I'm not really sure about the lengths of the note, please
forgive me if it's not that accurate. This tab is actually based on one of the bass 
covers of
faith posted in youtube. Just message me if you want the link. Hope you find this 
useful. God Bless. :)

Faith
Hillsong

Key: E
Standard tuning


Intro:
G|-----------------------------------------|
D|-----------------------------------------|   (2x)
A|-2/7-7-7--3--2-2--2-------------2-2--2---|
E|------7-------2--2---5-0-5-030---2--2----|

Verse:
G|-------------------------------------------|
D|-------------------------------------------|    (2x)
A|-7-5---5--7-5---5--------------------------|
E|--7---7-7--7---7-7-5-0-3--030-5-0-7--030---|

Refrain:
Greater is he...
G|----------------------------------------------|
D|----------------------------------------------|
A|-------------5-0-5--723-----------2-2-2-2-22--|
E|---5-0-5--723----------5-0-5--723-------------|

Chorus:
G|-----------------------------------------|
D|-----------------------------------------|
A|-2/7-7-7--3--2-2--2-------------2-2--2---|
E|------7-------2--2---5-0-5-030---2--2----|

G|-----------------------------------------|
D|-----------------------------------------|
A|-2/7-7-7--3--2-2--2-------------2-2-2----|
E|------7-------2--2---5-0-5-030-----------|

then intro
Verse
Chorus

Bridge:
Bass Solo
G|--911-12-12-1211---------------------------------12---12-11-----|
D|----------------12--1214-14-1412--1214-14-1412-12---12-----12---|
A|----------------------------------------------------------------|
E|----------------------------------------------------------------|


            
            
Suggest correction
Creating personal tab
Creating personal tab
You can edit any tab online and save it as your Personal.

You can edit, replace or remove any tab part or add personal notes – all changes will be seen only by you.

Personal tabs can be accessed anytime from any device, even offline.
Learn more »
Give kudos to tab author, rate the tab!
1 2 3 4 5
comments
print report bad tab
1 comment total.
0 reply
j_caay 42 Dec 31, 2015 01:07 AM

Thank you for this tab, bro!

guest
You may want to rate the tab now too:
select rating
Wanna post a correction for this tab? Suggest correction