Oops, an error
Loading. Please wait.

From The Inside Out Tab

version 1
version 1

Whole song

Interactive

136,061 views 141 this week
6 commentsread comments
1 2 3 4 5
x 13
add to favorites
launch autoscroll
font size
0
reset
how to read this tab
guitar tuner
Autoscroll
slow
fast
+/-
esc
set tempo
stop
Help us to improve Ultimate-Guitar.com Take our survey!
×
Difficulty
Capo
novice
5th fret
there are chords in brackets next to the proper ones which i think sound better.. or 
just better on acoustic..


[Intro]

  C   .   .   .      G      .     D     .
e|--------------12~~--------12--------------------------|
B|-------13p-------------13----13--15--12---------------|
G|-12h14-----14-------12------------------12------------| 4x
D|------------------------------------------------------|
A|------------------------------------------------------|
E|------------------------------------------------------|


[Verse]

C2(C)  G  D          2x

Em7(E)  C2(C)  G  D  2x          this is below

This is normal chord finger placements

Electric Guitar part:
  E . . .   C . . .   G . . .   D . . .

e|-----0---------0---------3---------2-0-------------|
B|-----------------2-------------------3-------------|
G|-------0---------0---------------2-----------------| 2x
D|-------2-----2-------------0---0-------------------|
A|---2-------3-----------2---------------------------|
E|-0-------------------3-----------------------------|


[Instrumental]

  C   .   .   .      G      .     D     .
e|--------------12~~--------12--------------------------|
B|-------13p-------------13----13--15--12---------------|
G|-12h14-----14-------12------------------12------------| 
D|------------------------------------------------------|
A|------------------------------------------------------|
E|------------------------------------------------------| x2


[Verse]

C2(C)  G  D     2x

Em7(E)  C2(C)  G  D  2x


Electric Guitar part:
E . . .     C . . .   G . . .   D . . .

e|-----0---------0---------3-----------2-0-----------|
B|-----------------2---------------------3-----------|
G|-------0---------0---------------2-0---------------|
D|-------2-----2-------------0---0-------------------|
A|---2-------3-----------2---------------------------|
E|-0-------------------3-----------------------------|

E . . .     C . . .   G . . .   D . . .

e|-----0---------0---------3---------2-0-------------|
B|-----------------2-------------------3-------------|
G|-------0---------0---------------2-----------------|
D|-------2-----2-------------0---0-------------------|
A|---2-------3-----------2---------------------------|
E|-0-------------------3-----------------------------|


[Chorus]

C2(C)  G  Em7(E)  D

C2(C)  Em7(E) D  Am7(Am)

(pause - high hats are sounded then come in)


Intro    x2
  C   .  .  .     G      .     D     .
e|-------------12--------12--------------------------|
B|-------13-----------13----13--15--12---------------|
G|-12h14----14-----12------------------12------------| 2x
D|---------------------------------------------------|
A|---------------------------------------------------|
E|---------------------------------------------------|


[Verse]

C2(C)  G  D     2x

Em7(E)  C2(C)  G  D  2x


Electric Guitar part:
E . . .     C . . .   G . . .   D . . .

e|-----0---------0---------3-----------2-0-----------|
B|-----------------2---------------------3-----------|
G|-------0---------0---------------2-0---------------|
D|-------2-----2-------------0---0-------------------|
A|---2-------3-----------2---------------------------|
E|-0-------------------3-----------------------------|

E . . .   C . . .   G . . .   D . . .

e|-----0---------0---------3---------2-0-------------|
B|-----------------2-------------------3-------------|
G|-------0---------0---------------2-----------------|
D|-------2-----2-------------0---0-------------------|
A|---2-------3-----------2---------------------------|
E|-0-------------------3-----------------------------|


[Chorus]

C2(C)  G  Em7(E)  D

C2(C)  Em7(E) D  Am7(Am)

Chorus 2 (the Everlasting part when it gets a lot louder)

Em7(E)  C2(C)  G  D  2x

G  C2(C)  D  Em7(E)  C  D  C  D


[Solo]

Chords

C  G  Em7(E)  D  C  Em7(E)  D  C


Electric Guitar Solo

e|-----------------------------------------------------------------|
B|-13-13-13-13-13-13-13-13-13-13-13-13-13-13-13-13-----------------|
G|-14-14-14-14-14-14-14-14h12-12-12-12-12-12-12-12-----------------|
D|-----------------------------------------------------------------|
A|-----------------------------------------------------------------|
E|-----------------------------------------------------------------|

e|-----------------------------------------------------------------|
B|-17-17-17-17-17-17-17-17/18-18-18-18-18-18-18-18-----------------|
G|-17-17-17-17-17-17-17-17-17-17-17-17-17-17-17-17-----------------|
D|-----------------------------------------------------------------|
A|-----------------------------------------------------------------|
E|-----------------------------------------------------------------|

e|------------------------------------------------------------(12)----|
B|--13h12----------13h12----------------------------------12(13)------|
G|--------14/16\12--------14-14-14/16\12---------------14-------------|
D|----------------------------------------14-15-14-12~~--14-----------|
A|--------------------------------------------------------------------|
E|--------------------------------------------------------------------|


e|-----------------------------------------------------------------|
B|-13-12-------17-17-17-17-17-17-17-17-17-17-----------------------|
G|-------14/16/17----------17--------------------------------------|
D|-----------------------------------------------------------------|
A|-----------------------------------------------------------------|
E|-----------------------------------------------------------------|

e|-----------------------------------------------------------------|
B|-13-12-------17-17-17-17-17-17-17-17-17-17-----------------------|
G|-------14/16/17----------17--------------------------------------|
D|-----------------------------------------------------------------|
A|-----------------------------------------------------------------|
E|-----------------------------------------------------------------|

e|-----17-----17-----17----17-----17-------19~~------------------|
B|--15-----15-----15----15-----15----15/17-----------------------|
G|---------------------------------------------------------------|
D|---------------------------------------------------------------|
A|---------------------------------------------------------------|
E|---------------------------------------------------------------|


[Chorus]

C2(C)  G  Em7(E)  D

C2(C)  Em7(E) D  Am7(Am)


[Chorus]

Em7(E)  C2(C)  G  D  2x

G  C2(C)  D  Em7(E)  C  D  C  D


[Outro]

just stay on C2 for it

e|---------------------------|
B|---------------15-13---0---|
G|---12-11-10p0--------14~---| 6x
D|---------------------------|
A|---------------------------|
E|---------------------------|

end on:


e|-----------------0-------|(let hang)
B|-------------------------|
G|-12-11-10p0---15-13------|
D|-------------------------|
A|-------------------------|
E|-------------------------|


Structure:

[Intro]
[Verse]
[Intro]
[Verse]
[Chorus]
[Intro]
[Verse]
[Chorus]
[Chorus]
[Solo]
[Chorus]
Chorus 2  X2
[Outro]




************************************

| (n)  Ghost note
| h    Hammer-on
| p    Pull-off
| /    Slide up
| \    Slide down
| ~    Vibrato

************************************
Suggest correction
comments
print report bad tab
6 comments total. Showing first comments.
0 reply
KOIKUS 10 Nov 16, 2006 11:29 PM

Hey man great tab, great song.

0 reply
blinkrocks 127 Jun 08, 2007 03:09 PM

I believe when they play it live they use a capo, the intro isn't played that high, its the same notes but it has a capo.

0 reply
09bassforChrist 10 Jul 30, 2007 06:32 AM

yeh capo on 5th, like it says on the top of the tab... but yeh play the notes like without a capo sorry, i should have said but if you play around with it most people hopefully get it.
from the tabber.

guest
You may want to rate the tab now too:
select rating
Wanna post a correction for this tab? Suggest correction