Oops, an error
Loading. Please wait.

God Is Able Tab

version 2
version 2

Whole song

53,150 views 87 this week
2 commentsread comments
1 2 3 4 5
accurate
x 14
add to favorites
launch autoscroll
font size
0
reset
how to read this tab
guitar tuner
Tab Pro tools
  • play this tab
  • loop segment
  • change instrument
  • show fretboard
  • metronome
×
Best way to learn
"God Is Able"
Autoscroll
slow
fast
+/-
esc
set tempo
stop
Contributor
Intro:
e|--------------------------------------11-12-12p11----|
b|-12-12-12....--14p12-12--14p12-12-12-----------------|
g|-----------------------------------------------------|
d|-----------------------------------------------------|
a|-----------------------------------------------------|
E|-----------------------------------------------------|

e|-----------------------------------------------------|
b|-14p12-12--14p12-12-12-----------12------------------|
g|------------------------11h13-13---------------------|
d|-----------------------------------------------------|
a|-----------------------------------------------------|
E|-----------------------------------------------------|

Verse Chords:
      B
God is able
        F#
He will never fail
Abm            E
He is almighty God
             B
Greater than all we need
             F#
Greater than all we have
Abm       E       F#
He has done great things



Chorus Chords:
       B
Lifted up
             F#
Defeated the grave
          Abm
Raised to life
           E
Our God is able
       B/D#
In His name
       F#
We overcome
        Abm
For the Lord
    F#     E
Our God is able


Lead part before the Bridge
e|---------------------------------------------------------------------|
b|---------------------------------------------------------------------|
g|-11111111119-8-6-6-6-6-6-3-3-4-4---111111118-8-6-6-9-9-9-9-9-9-9-9---|
d|-x-x-x-x-x-x-x-x-x-x-x-x-x-x-x-x---x-x-x-x-x-x-x-x-x-x-x-x-x-x-x-x---|
a|-9-9-9-9-9-7-6-4-4-4-4-4-1-1-2-2---9-9-9-9-6-6-4-4-7-7-7-7-7-7-7-7---|
E|---------------------------------------------------------------------|

Bridge Chords:

       B
God is with us
        F#
He will go before
        Abm            F#
He will never leave us
        E
He will never leave us

       B/D#
God is for us
       F#
He has open arms
        Abm           F#
He will never fail us
               E
He will never fail us
comments
print report bad tab
2 comments total.
+1 reply
AfroNinja13 wrote on September 13 2011, 08:25 pm

Perfect tab! The Abm is theoretically supposed to be a G#m, but i understand that UG sometimes auto "corrects".

0 reply
rokker17 wrote on October 4 2011, 02:33 pm

awsome tab thanks been scrambling all week to find it

I want to post or [tab]
guest
You may want to rate the tab now too:
select rating
Please do not post tabs as comments. Select "correction" instead!