Oops, an error
Loading. Please wait.

Here To Eternity tab

7,809 views 3 this week
no commentswrite comment
1 2 3 4 5
2 more votes to show rating
add to favorites
×
Save as Personal and add changes to this tab that will be seen only by you. Learn more ›
×
You can save this tab as Personal to edit and correct it or add notes. All changes will be seen only by you. Learn more »
launch autoscroll
font size
0
reset
how to read this tab
guitar tuner
edit
Autoscroll
slow
fast
+/-
esc
set tempo
stop
Author
HERE TO ETERNITY
HILLSONGS MUSIC AUSTRALIA
TABS BY: RAYFOX OF SWITCHBLADE, SURALLAH, PHILIPPINES
E-mail Add: super_rayfox@yahoo.com
It's not accurate just my own interpretation...
I made some guitar arrangement for keyboard...

INTRO:
Riff A
    G                                                    4X
|--10--10--10--10--10--10--8--8--7--7--7--7---7-----------------------|
|---8---8---8---8---8---8--8--8--8--8--8--8---10----------------------|
|---7---7---7---7---7---7--7--7--7--7--7--7---7-----------------------|
|---------------------------------------------------------------------|
|---------------------------------------------------------------------|
|---------------------------------------------------------------------|
VERSE:
GUITAR 1:
      G           Gsus        G             Gsus
|-----3-----------3-----------3-------------3-------------------------|
|-----3-----------3-----------3-------------3-------------------------|
|-----4-----------5-----------4-------------5-------------------------|
|-----5-----------5-----------5-------------5-------------------------|
|-----5-----------5-----------5-------------5-------------------------|
|-----3-----------3-----------3-------------3-------------------------|
    Your kingdom generation, declares Your majesty
                                             trumpet arranged for gtr
|---------------------------------------3---|------------------3------|
|---------------------------------------3---|------------------3------|
|------------5------7------5------7-----4---|--10---9---7------4------|
|------------5------7------5------7-----5---|---x---x---x------5------|
|------------3------5------3------5-----5---|---8---7---5------5------|
|---------------------------------------3---|------------------3------|
  Our       lives are resounding with Your praise.
GUITAR 2:
|------------------------------------------------|
|------------------------------------------------|
|----------------0------0------0------0----------|
|--------------2------4------2------4------------|
|------------3------5------3------5--------------|
|------------------------------------------------|
GUITAR 1:
      G           Gsus        G             Gsus
|-----3-----------3-----------3-------------3-------------------------|
|-----3-----------3-----------3-------------3-------------------------|
|-----4-----------5-----------4-------------5-------------------------|
|-----5-----------5-----------5-------------5-------------------------|
|-----5-----------5-----------5-------------5-------------------------|
|-----3-----------3-----------3-------------3-------------------------|
We see Your Spirit moving, We burn with Holy fire

|---------------------------------------3---|
|---------------------------------------3---|
|------------5------7------5------7-----4---|
|------------5------7------5------7-----5---|
|------------3------5------3------5-----5---|
|---------------------------------------3---|
Your Glory is seen through all the earth
GUITAR 2:
|------------------------------------------------|
|------------------------------------------------|
|----------------0------0------0------0----------|
|--------------2------4------2------4------------|
|------------3------5------3------5--------------|
|------------------------------------------------|

PRE-CHORUS:
  pm       pm          pm                pm         pm
|--------------------------------------------------------------3------------------------|
|-----------------------------------------------------------------5---------------------|
|-------------------------------------------------------------------5-------7-7-7-7-7-7-|
|-----------------------------------------------------------5---------------7-7-7-7-7-7-|
|--3--3--3--3--3--3--5--5--5--5--5--5--7--7--5--5--3--3--5------------3—3—3-5-5-5-5-5-5-|
|---------------------------------------------------------------------------------------|
You set eternity in my heart,          so I'll live for You........  for You
CHORUS:
    G                                     Em          C      B/G  Am7        D
|--3--3--3--3--3--3----3—3—3—3--3—--------0--0--0--0-------------------------2--2--2--2-|
|--3--3--3--3--3--3----3-3-3-3--3---------0--0--0--0-------------------------3--3--3--3-|
|--0--0--0--0--0--0----0-0-0-0—-0---------0--0--0--0-------0------0-----0----2--2--2--2-|
|--0--0--0--0--0--0----0-0-0-0—-0---------2--2--2--2-----2-----0------2------0--0--0--0-|
|--2--2--2--2--2--2----2-2-2-2—-2---------2--2--2--2--3------2------0-------------------|
|--3--3--3--3--3--3----3-3-3-3--3---------0--0--0--0------------------------------------|
Hallelujah,halle.. honor & praise forever,we'll shout a victory cry from here to eternity

    G                                     Em          C      B/G    Am7      D
|--3--3--3--3--3--3----3—3—3—3--3—--------0--0--0--0-------------------------2--2--2--2-|
|--3--3--3--3--3--3----3-3-3-3--3---------0--0--0--0-------------------------3--3--3--3-|
|--0--0--0--0--0--0----0-0-0-0—-0---------0--0--0--0-------0------0-----0----2--2--2--2-|
|--0--0--0--0--0--0----0-0-0-0—-0---------2--2--2--2-----2-----0------2------0--0--0--0-|
|--2--2--2--2--2--2----2-2-2-2—-2---------2--2--2--2--3------2------0-------------------|
|--3--3--3--3--3--3----3-3-3-3--3---------0--0--0--0------------------------------------|
Hallelujah,halle.. honor & praise forever,we'll take our place in history we'll shout 
awesome love from here to......

  F                      G (Guitar 2) Guitar 1 Riff A  2X
|--1--1--1--1--1--1------3--3--3--3--3--3--3------------|
|--1--1--1--1--1--1------3--3--3--3--3--3--3------------|
|--2--2--2--2--2--2------0--0--0--0--0--0--0------------|
|--3--3--3--3--3--3------0--0--0--0--0--0--0------------|
|--3--3--3--3--3--3------2--2--2--2--2--2--2------------|
|--1--1--1--1--1--1------3--3--3--3--3--3--3------------|
GUITAR 3...  trumpet arranged for gtr
|--13--12--10--8------------------------------|
|---x---x---x--x------------------------------|
|--10---9---7--5------------------------------|
|---------------------------------------------|
|---------------------------------------------|
|---------------------------------------------|
..eternity

Back to Verse:
Then Pre-Chorus:
Then Chorus...4x

END:
|----------------------3-----------|
|----------------------3-----------|
|--10-10-10-10-10-10---0-----------|
|---x--x--x--x--x--x---0-----------|
|---8--8--8--8--8--8---2-----------|
|----------------------3-----------|
SWITCHBLADE
Hi to my bandmates: Toto, Tata, Kenneth, Ian, Ryan, Totong and Sharon...

            
            
Suggest correction
Creating personal tab
Creating personal tab
You can edit any tab online and save it as your Personal.

You can edit, replace or remove any tab part or add personal notes – all changes will be seen only by you.

Personal tabs can be accessed anytime from any device, even offline.
Learn more »
Give kudos to tab author, rate the tab!
1 2 3 4 5
comments
print report bad tab
guest
You may want to rate the tab now too:
select rating
Wanna post a correction for this tab? Suggest correction