Oops, an error
Loading. Please wait.

I Will Exalt You Tab

version 1
version 1

Solo

Whole song

1,887 views 3 this week
no commentswrite comment
1 2 3 4 5
2 more votes to show rating
add to favorites
launch autoscroll
font size
0
reset
how to read this tab
guitar tuner
Autoscroll
slow
fast
+/-
esc
set tempo
stop
Help us to improve Ultimate-Guitar.com Take our survey!
×
Author
Difficulty
novice
I Will Exalt You
HILLSONG
FAITH + HOPE + LOVE

Tabbed by Mark Demano

*Not sure if it's 100% correct, but it works for me. ENJOY!


INTRO/VERSE RIFFS


RIFF A

e ---------------------------------------------------|
B ----2--------4--------7-------9------9-----9-------|
G ---------------------------------------------------|
D ------------------------------9-----------9--------|
A ----1--------2--------6-------7----7----*7---------|
E ---------------------------------------------------|

*repeat plucking pattern until you repeat riff a or move to riff b

RIFF B

e ---------------------------------------------------|
B -----------------------------2---------------------|
G ----6/8/6-----6------4-------4---------------------|
D ---------------------4-------4---------------------|
A ----4/6/4-----4------2------*2---------------------|
E ---------------------------------------------------|
                                           *freestyle pluck with this chord
Suggest correction
Give kudos to tab author, rate the tab!
1 2 3 4 5
comments
print report bad tab
guest
You may want to rate the tab now too:
select rating
Wanna post a correction for this tab? Suggest correction