Oops, an error
Loading. Please wait.

Im Not Ashamed Bass Tab

version 1
version 1

Whole song

Interactive

7,414 views 1 this week
no commentswrite comment
1 2 3 4 5
x 4
add to favorites
launch autoscroll
font size
0
reset
guitar tuner
Autoscroll
slow
fast
+/-
esc
set tempo
stop
Help us to improve Ultimate-Guitar.com Take our survey!
×
Author
Hillsong
Song: I'm Not Ashamed
Album: Saviour King

Intro
G----------------------------------|
D-----------------55555555---------|
A-3333333333333333--------55555555-| X6
E----------------------------------|

Most of the verses are Part 1. Part 2 is 
played once in a while.

Verse
Part 1                 Part 2
G-----------------|    G-----------------|
D-----------------|    D-------------557-|
A-------33--------|    A-------33--------|
E-00-33----55-335-|    E-00-33----55-----|

For Pre Chorus, play Intro twice

Chorus
G--------------------------------------|
D--------------------------------------|
A----------55555555-777777777-33333333-|
E-33333333-----------------------------|

Verse
Pre Chorus
Chorus

Bridge
G----------------------------------|
D-----5~---------55555555----------|
A-3~------5~--3~----------55555555-| 
E----------------------------------|

Rest

at 3:37, play...
G-------------------|
D-------------------|
A-77777777-33333333-|
E-------------------|

Chorus
Verse

...enjoy
Suggest correction
comments
print report bad tab
guest
You may want to rate the tab now too:
select rating
Wanna post a correction for this tab? Suggest correction