Oops, an error
Loading. Please wait.

In Your Freedom Chords

version 2
version 2

Whole song

2,034 views 3 this week
no commentswrite comment
1 2 3 4 5
please rate
add to favorites
launch autoscroll
font size
0
reset
transpose
0
reset
simplify chords
- display chords -
guitar tuner
Tab Pro tools
  • play this tab
  • loop segment
  • change instrument
  • show fretboard
  • metronome
Autoscroll
slow
fast
+/-
esc
set tempo
stop
Contributor
Tabbed by: Mark Larry S. Saquing
Title: In Your Freedom
Artist: Hillsong
Album: Saviour King

Key: D

Intro:(Stum once)
   G          A           Bm           D/F# 
e|-x----------x-----------x------------x---|
B|-x----------x-----------x------------x---|
G|-4----------6-----------7------------2---|
D|-0----------0-----------0------------0---|
A|-0----------0-----------0------------0---|
E|-3----------5-----------7------------2---|

   G          A           Bm .............           
e|-x----------x-----------x---------------|
B|-x----------x-----------x---------------|
G|-4----------6-----------7---------------|
D|-0----------0-----------0---------------|
A|-0----------0-----------0---------------|
E|-3----------5-----------7---------------|

Verse 1:(Play the chords just like in Intro. 
         Strum also once.)
G            A
I search for You
       Bm      D/F#
God of strength
G        A
I bow to You
            Bm
In my brokenness
       G                A              Bm   D/F#
And no other king could have so humbly come
   G                A       Bm    A
To save my soul and heal my heart

Pre-Chorus:(Lightly strum)
    G          A           Bm          D/F#        D
e|-x----------x-----------x------------x-----------x--|
B|-x----------x-----------x------------x-----------x--|
G|-4----------6-----------7------------2-----------11-|
D|-0----------0-----------0------------0-----------0--|
A|-0----------0-----------0------------0-----------0--|
E|-3----------5-----------7------------2-----------10-|
Bm      A
I have nothing more
D            A
Than all You offer me
Bm       A
There is nothing else
G         A        D
That's of worth to me


Chorus:(Strum)
    D   A   Bm   G
e|--2---0---2----3---|
B|--3---2---3----3---|
G|--2---2---4----0---|
D|--0---2---4----0---|
A|--x---0---2----2---|
E|--x---x---x----3---|
D     A        Bm
And I love You Lord
    G      D
You rescue me
        A          Bm
You are all that I want
       G     D
You're all I need

Intro 2:(Strum)
   G          A           Bm           D/F# 
e|-x----------x-----------x------------x---|
B|-x----------x-----------x------------x---|
G|-4----------6-----------7------------2---|
D|-0----------0-----------0------------0---|
A|-0----------0-----------0------------0---|
E|-3----------5-----------7------------2---|


Verse 2:
G         A
I pray to You
       Bm    D/F#
God of peace
G         A
I rest in You
           Bm    A
My cares released

Pre-Chorus:(Strum)
   G          A           Bm           D/F#        D
e|-x----------x-----------x------------x-----------x--|
B|-x----------x-----------x------------x-----------x--|
G|-4----------6-----------7------------2-----------11-|
D|-0----------0-----------0------------0-----------0--|
A|-0----------0-----------0------------0-----------0--|
E|-3----------5-----------7------------2-----------10-|
Bm      A
I have nothing more
D            A
Than all You offer me
Bm       A
There is nothing else
G         A        D
That's of worth to me

Chorus:(Strum)
    D   A   Bm   G
e|--2---0---2----3---|
B|--3---2---3----3---|
G|--2---2---4----0---|
D|--0---2---4----0---|
A|--x---0---2----2---|
E|--x---x---x----3---|
D     A        Bm
And I love You Lord
    G      D
You rescue me
        A          Bm
You are all that I want
       G     D
You're all I need


Instrumental:(Strum)2x
    D/F# A   Bm   G
e|--2----0---2----3---|
B|--3----2---3----3---|
G|--2----2---4----0---|
D|--0----2---4----0---|
A|--0----0---2----2---|
E|--2----x---x----3---|

Bridge:(Strum lightly at first round)3x
    D/F# A   Bm   G
e|--2----0---2----3---|
B|--3----2---3----3---|
G|--2----2---4----0---|
D|--0----2---4----0---|
A|--0----0---2----2---|
E|--2----x---x----3---|
G                      D/F#
In Your freedom I will live
                       Bm
In Your freedom I will live
         D/F#    G
I offer devotion
         D/F#    G
I offer devotion

Chorus:(Strum)2x
    D   A   Bm   G
e|--2---0---2----3---|
B|--3---2---3----3---|
G|--2---2---4----0---|
D|--0---2---4----0---|
A|--x---0---2----2---|
E|--x---x---x----3---|
D     A        Bm
And I love You Lord
    G      D
You rescue me
        A          Bm
You are all that I want
       G     D
You're all I need
comments
We did not receive enough feedback on this tab! Please rate:
print report bad tab
1 2 3 4 5
I want to post or [tab]
guest
You may want to rate the tab now too:
select rating
Please do not post tabs as comments. Select "correction" instead!