Oops, an error
Loading. Please wait.

King Of All Days tab

8,803 views 3 this week
3 commentsread comments
1 2 3 4 5
x 5
add to favorites
×
Save as Personal and add changes to this tab that will be seen only by you. Learn more ›
×
You can save this tab as Personal to edit and correct it or add notes. All changes will be seen only by you. Learn more »
launch autoscroll
font size
0
reset
how to read this tab
guitar tuner
edit
Autoscroll
slow
fast
+/-
esc
set tempo
stop
Intro & Verse: the notes sustain, so there are slides in between each change
-----------------------------|
-----------------------------|
-----------------------------|
--6-6-6-6-6-6-6--4-4-4---6-6-|
----------------2-2-2-2s4-4--|
-0-0-0-0-0-0-0---------------|

-----------------------------|
-----------------------------|
-----------------------------|
--6-6-6-6-6-2-2-2------------|
-4-4-4-4-4-0-0-0-------------|
-----------------------------|

or you can do this part like this:

-----------------------------|
-----------------------------|
-----------------------------|
--6-6-6-6-6-6-6--4-4-4---6-6-|
-7-7-7-7-7-7-7--2-2-2-2s4-4--|
-----------------------------|

-----------------------------|
-----------------------------|
-----------------------------|
--6-6-6-6-6-2-2-2------------|
-4-4-4-4-4-0-0-0-------------|
-----------------------------|
I used the first one in the video as its more comfortable for me.

E B C#m A


Pre-Chorus: Chord inversion
------------------------------------|
---5---5---5---5---5---5---4---5-4--|
--6-6-6-6-6-6-6-6-4-4-4-4-4-4-4-----|
-6---6---7---7---6---6---6---6------|
------------------------------------|
------------------------------------|

------------------------------------|
---5---5---5---5---5---5---5p4--5p4-|
--6-6-6-6-6-6-6-6-4-4-4-4-4----4----|
-6---6---7---7---6---6---4----4-----|
------------------------------------|
------------------------------------|

C#m A E G#m
C#m A E B

Chorus: Strum (with distortion part)
---------------------------|
---------------------------|
--9-8-9--13--16------------|
---------------------------| 3x
--7-6-7--11--14------------|
---------------------------|

---------------------------|
---------------------------|
--9-8-9--16--14------------|
---------------------------|
--7-6-7--14--12------------|
---------------------------|

---------------------------|
---------------------------|
--9-8-9--13--16------------|
---------------------------| 3x
--7-6-7--11--14------------|
---------------------------|

---------------------------|
---------------------------|
--9-8-9--16--14-13---------|
---------------------------|
--7-6-7--14--12-11---------|
---------------------------|

------10-11----------------|
-----------9---------------|
--9s10---------------------|
---------------------------|
---------------------------|
---------------------------|

Pre-Bridge: back to clean sound
---------------------------|
--7-5-4---4-5--------------|
-------6-----4-2-1---------|
---------------------------|
---------------------------|
---------------------------|

Bridge:
------------9--9-------------|
-----4----------12-9-10--10--|
---------7s9--9--------------|
--2s4------------------------|
-----------------------------|
-----------------------------|

----------0----------------|
--5--4-5-4---5-------------|
-----------------4---------|
---------------------------|
---------------------------|
---------------------------|

Followed by: Build up
---------------------------|
--6-----4------------------|
--4-----4----6----9--------|
--2-----4----6----9--------|
-------------4----7--------|
---------------------------|

E B C#m E

            
            
Suggest correction
Creating personal tab
Creating personal tab
You can edit any tab online and save it as your Personal.

You can edit, replace or remove any tab part or add personal notes – all changes will be seen only by you.

Personal tabs can be accessed anytime from any device, even offline.
Learn more »
comments
print report bad tab
3 comments total.
+1 reply
aheadshot01 10 Jul 06, 2010 07:21 PM

the intro starts on open E and the 11th fret... down to 7,9 up to 9,11 down to 5,7......and so on.. your chorus was quite accurate... it helped me a bit actually... you heard a part that i didn't catch. much thanks.

0 reply
bcwfootball54 1,122 Jul 06, 2010 10:10 PM

This is how they play it live and on the album. The only thing that they sometimes do is play
-----------------------------
-----------------------------
-----------------------------
--6-6-6-6-6-6-6--4-4-4---6-6-
-7-7-7-7-7-7-7--2-2-2-2s4-4--
-----------------------------
I assure you this is how they play it. Play and sing along with it and you shall see. I do ad an open E when i play the E on the D string to add some bass. Enjoy! God Bless.

0 reply
mtg6792 22 Mar 09, 2017 12:05 PM

Aheadshot01 is basically right. Except instead of 0-11, its E-0, G-6. I submitted a correction for your approval. I believe you'll find it is more accurate to the recorded version.

guest
You may want to rate the tab now too:
select rating
Wanna post a correction for this tab? Suggest correction