Oops, an error
Loading. Please wait.

King Of Majesty Tab

version 1
version 1

Whole song

Interactive

13,386 views 9 this week
no commentswrite comment
1 2 3 4 5
please rate
add to favorites
launch autoscroll
font size
0
reset
how to read this tab
guitar tuner
Autoscroll
slow
fast
+/-
esc
set tempo
stop
Help us to improve Ultimate-Guitar.com Take our survey!
×
Hillsong
King Of Majesty
United We Stand
2006

Verses:
e|---2----2----2--|
B|-0----0----0----|
G|----------------|
D|----------------| (x6)
A|----------------|
E|----------------|

Post Verse:
e|--------------|
B|--------------|
G|-4------------|
D|-4--2--6--2---|
A|-2--2--6--2---|
E|----0--4--0---|

Refrain: 0:44
e|-------|-------------------0-------|
B|-------|----------------------4--0-|
G|---3-4-|-3-3-3-3-4-4-4-4-4---------|
D|-4-----|-4-4-4-4-6-6-6-6-2---------|
A|-------|---------------------------|
E|-------|---------------------------|
    x10             x2

Chorus: 1:04 & 1:13
e|-------------------|---|
B|-2/4-4-4-4\2-2p0-0-|-0-|
G|-------------------|---|
D|-------------------|---| (x2)
A|-------------------|---|
E|-------------------|---|
         x2

(Repeat from Verses to Chorus twice)

Bridge: Very Fast Solo at 2:44
e|-7~--------------------------------------7-7----7-9--9p7/11~------9-9--9h8-|
B|-----7~------------------------------7h9------9---------------7-7----------|
G|---------4/6~--6/8~------6-6------8----------------------------------------|
D|---------------------4-4------6-6------------------------------------------|
A|---------------------------------------------------------------------------|
E|---------------------------------------------------------------------------|
then
e|----7p6---------------|
B|--------7/9\7---------|
G|--------------9p8\6---|
D|--------------------9-|
A|----------------------|
E|----------------------|

(Repeat Refrain and chorus twice)
Suggest correction
Give kudos to tab author, rate the tab!
1 2 3 4 5
comments
print report bad tab
guest
You may want to rate the tab now too:
select rating
Wanna post a correction for this tab? Suggest correction