Oops, an error
Loading. Please wait.

King Of Majesty Tab

version 2
version 2

Whole song

Interactive

9,999 views 1 this week
no commentswrite comment
1 2 3 4 5
please rate
add to favorites
launch autoscroll
font size
0
reset
how to read this tab
guitar tuner
Autoscroll
slow
fast
+/-
esc
set tempo
stop
Help us to improve Ultimate-Guitar.com Take our survey!
×
Author
Difficulty
intermediate
Verse Tabs:
Use lots of palm mutes to achieve the 'jumping' effect.
----------------------------------------|
----------------------------------------|
-----4-4--4---4---------4-4--4---4-(x2)-|
-----4-4--4---4-(x2)----4-4--4---4------|
-2-2--------2---------------------------|
---------------------4-4-------4--------|

----------------------0-------|
----------------------0-------|
-----3-3--3---3-------1-------|
-----4-4--4---4-(X2)--2-------|
-----4-4--4---4-------2-------|
-2-2--------2---------0-------|

Then play the power chords: B E G#m E


Chorus-Bridge
(The material in the 2nd half of the bridge is used in the verse right before the chorus)

Chorus: Power chords
B E F# E
------------------------|
------------------------|
-6s8-8-8-6s4------4-----|
-------------(x2)-4-----|
-4s6-6-6-4s2------2-----|
------------------------|

B G#m F# E
-------------------------|
-------------------------|
-6s8-8-8-6s4------4------|
-------------(x2)-4------|
-4s6-6-6-4s2------2------|
-------------------------|

Bridge:
The following is the free solo, use this as a guide or framework only, & try to find 
own voice.
-------------------------|
-------------------------|
---11--------------------|
-9-----11p9-11b13-11p9---|
-----------------------9-|
-------------------------|

------------------------------|
------------------------12-12-|
------------------11h13-------|
-9h11p9-11s13-13--------------|
------------------------------|
------------------------------|

------------------------------|
-14p12-14b16-14b16--14p12h14--|
------------------------------|
------------------------------|
------------------------------|
------------------------------|

------------------------------|
-12p11------------------------|
-------11h13-11--9p8----------|
---------------------9--------|
------------------------------|
------------------------------|

This is the part that can be used in the verse as well:
------------------------------|
-----0------------------------|
---3---(keep repeating,-------|
-4------use palm mutes)-------|
------------------------------|
------------------------------|

Followed by power/barre chords:
F# G#, and
----------|
----------|
-9-8-6-4--|
----------|
-7-6-4-2--|
----------|

F# G#
------------------------------|
------------------------------|
-9-8-6-4--9-11-13-15-16-------|
------------------------------|
-7-6-4-2--7-9--11-13-14-------|
------------------------------|
Suggest correction
Give kudos to tab author, rate the tab!
1 2 3 4 5
comments
print report bad tab
guest
You may want to rate the tab now too:
select rating
Please do not post tabs as comments. Select "correction" instead!