Oops, an error
Loading. Please wait.

Kingdom Come Tab

version 1
version 1

Intro

Whole song

1,368 views 1 this week
1 commentread comment
1 2 3 4 5
accurate
x 3
add to favorites
launch autoscroll
font size
0
reset
how to read this tab
guitar tuner
Tab Pro tools
  • play this tab
  • loop segment
  • change instrument
  • show fretboard
  • metronome
×
Best way to learn
"Kingdom Come"
Autoscroll
slow
fast
+/-
esc
set tempo
stop
Difficulty
novice
e------------------------------------------555-------------|
B----777----555----777----555----77----5--------555----777-|
G----------------------------------------------------------|
D----------------------------------------------------------|
A----------------------------------------------------------|
E----------------------------------------------------------|


e-------------------777------------------------------------|
B-555----77----5---------555----777----555----77----5------|
G----------------------------------------------------------|
D----------------------------------------------------------|
A----------------------------------------------------------|
E----------------------------------------------------------|


e----------------------------------------------------------|
B------333----222----000------33---22---00-----------------|
G----------------------------------------------------------|
D----------------------------------------------------------|
A----------------------------------------------------------|
E----------------------------------------------------------|

and this goes through out the entire song,in different parts.....
i figured out this tab today 12/18/06 since no one had posted it up , hope you enjoy it 
i did figuring it out, if any questions about this tab email me at Geognz@aol.com  thank 
and God bless
comments
We did not receive enough feedback on this tab! Please rate:
print report bad tab
1 2 3 4 5
1 comment total.
0 reply
jonboytang wrote on February 14 2007, 07:26 pm

this is not accurate... unless you are doing a TRUE interpretation of the song.

should be: 1st 2nd
B|---------|-------------------------------|-10-10-10-|-12-12-12-|
G|11-11-11-|--9-9-9-11-11-11-999-11-11-9h11|----------|

3rd
D|12-12-12-11-11-11-9-9-9|

I want to post or [tab]
guest
You may want to rate the tab now too:
select rating
Please do not post tabs as comments. Select "correction" instead!