Oops, an error
Loading. Please wait.

Love Like Fire Tab

version 2
version 2

Whole song

Interactive

4,122 views 3 this week
1 commentread comment
1 2 3 4 5
excellent!
x 4
add to favorites
launch autoscroll
font size
0
reset
how to read this tab
guitar tuner
Autoscroll
slow
fast
+/-
esc
set tempo
stop
Help us to improve Ultimate-Guitar.com Take our survey!
×
Contributor
Difficulty
novice
-------------------------------------------------------------------------------
			     Love like Fire - Hillsongs
-------------------------------------------------------------------------------
Tabbed by: ijustwannalive
Email: addicted-18@hotmail.co.uk

Tuning: E 

Electric Guitars X2
Keyboard Transposed into Guitar (Guitar 3)
Acoustic Guitars X1

Intro/Verse 1 & 2

Acoustic Guitar + Keyboard plays E, C#m, B, A, E   X 3

(Guitar 1) ~ With Delay

e|------------------------------7~-------|
B|-------9-----7-----9-----7h9-----------|
G|----9-----9-----9-----9----------------|		X 24	
D|---------------------------------------|
A|---------------------------------------|
E|---------------------------------------|

(Guitar 3) ~ With Delay

e|------12---------12---------11---------12-------|
B|------------------------------------------------|
G|-----(9)--------(9)--------(8)--------(9)-------|		X 3
D|------------------------------------------------|
A|------------------------------------------------|
E|------------------------------------------------|

Pre-Chorus

Acoustic Guitar + Keyboard plays C#m, A, E, B,
				  C#m, A, E, B, E

(Guitar 2) ~ With Slight Distortion

e|-------------------------------------------------------------------|
B|-------------------------------------------------------------------|
G|-------------------------------------------------------------------|
D|-------------11-------11----9-------9------------------------------|
A|-----9/11--------------------------------11-------11----9----------|
E|-------------------------------------------------------------12~~~-|
										
e|-------------------------------------------------------------------|
B|-------------------------------------------------------------------|
G|-------------------------------------------------------------------|
D|-------------11-------11----9-------9------------------------------|
A|-----9/11--------------------------------11-------11----9----------|
E|-------------------------------------------------------------11~~~-|

(Guitar 3 Transposed from Keyboards) ~ With Delay

e|------12---------12---------11---------12-------|
B|------------------------------------------------|
G|-----(9)--------(9)--------(8)--------(9)-------|		
D|------------------------------------------------|
A|------------------------------------------------|
E|------------------------------------------------|

Chorus

Acoustic Guitar + Keyboard plays E, B, C#m, A, E

(Guitar 2) ~ With slight Distortion
	  X16	    X16		X8
e|-----12--------11--------12--------7-7-7-7-----7--7--7--7-----------|
B|-----12--------12--------12--------9-9-9-9-----10-10-10-10----9~~~--|
G|--------------------------------------------------------------9~~~--|
D|--------------------------------------------------------------------|
A|--------------------------------------------------------------------|
E|--------------------------------------------------------------------|

Verse 3

Acoustic Guitar + Keyboard plays E, C#m, B, A, E

(Guitar 1) ~ With Delay

e|------------------------------7--------|
B|-------9-----7-----9-----7h9-----------|
G|----9-----9-----9-----9----------------|		X 10	
D|---------------------------------------|
A|---------------------------------------|
E|---------------------------------------|

(Guitar 3 Transposed from Keyboards) ~ With Delay

e|------12---------12---------11---------12-------|
B|------------------------------------------------|
G|-----(9)--------(9)--------(8)--------(9)-------|	
D|------------------------------------------------|
A|------------------------------------------------|
E|------------------------------------------------|

Pre-Chorus

Acoustic Guitar + Keyboard plays C#m, A, E, B,
				  C#m, A, E, B, E

(Guitar 2) ~ With Slight Distortion

e|-------------------------------------------------------------------|
B|-------------------------------------------------------------------|
G|-------------------------------------------------------------------|
D|-------------11-------11----9-------9------------------------------|
A|-----9/11--------------------------------11-------11----9----------|
E|-------------------------------------------------------------12~~~-|
										
e|-------------------------------------------------------------------|
B|-------------------------------------------------------------------|
G|-------------------------------------------------------------------|
D|-------------11-------11----9-------9------------------------------|
A|-----9/11--------------------------------11-------11----9----------|
E|-------------------------------------------------------------11~~~-|

(Guitar 3 Transposed from Keyboards) ~ With Delay

e|------12---------12---------11---------12-------|
B|------------------------------------------------|
G|-----(9)--------(9)--------(8)--------(9)-------|		
D|------------------------------------------------|
A|------------------------------------------------|
E|------------------------------------------------|

Chorus

Acoustic Guitar + Keyboard plays E, B, C#m, A, E    X 2

(Guitar 2) ~ With slight Distortion
	  X16	    X16		X8
e|-----12--------11--------12--------7-7-7-7-----7--7--7--7-----------|
B|-----12--------12--------12--------9-9-9-9-----10-10-10-10----------|
G|--------------------------------------------------------------------|
D|--------------------------------------------------------------------|
A|--------------------------------------------------------------------|
E|--------------------------------------------------------------------|

	  X16	    X16		X8
e|-----12--------11--------12--------7-7-7-7-----7--7--7--7-----------|
B|-----12--------12--------12--------9-9-9-9-----10-10-10-10----9~~~--|
G|--------------------------------------------------------------9~~~--|
D|--------------------------------------------------------------------|
A|--------------------------------------------------------------------|
E|--------------------------------------------------------------------|

e|---------------------------------------------|
B|---------------------------------------------|
G|----1-1-1-1-1-1-1-1-1-1-1-1-1-1-1-1~~~-------|
D|----2-2-2-2-2-2-2-2-2-2-2-2-2-2-2-2~~~-------|
A|----2-2-2-2-2-2-2-2-2-2-2-2-2-2-2-2~~~-------|
E|----0-0-0-0-0-0-0-0-0-0-0-0-0-0-0-0~~~-------|


Instrumental

Acoustic Guitar + Keyboard plays E, B, C#m, A, E

(Guitar 1 & 2) ~ With Heavy Distortion

e|--------------------------------------------------------------|
B|--------------------------------------------------------------|
G|---9-9-9-9---8-8-8/4--11-11-11-11--13-13-13-13----------------|		X 2
D|---X-X-X-X---X-X-X/X--X--X--X--X---X--X--X--X-----------------|
A|---7-7-7-7---6-6-6/2--9--9--9--9---11-11-11-11----------------|
E|--------------------------------------------------------------|

e|-----------------X-------------------------------------------------|
B|-----------------X-------------------------------------------------|
G|---8-8-8-8---6-6-X-----8-8-8-8--9-9-9-9--6-6-6-6--4-4-4-4--6-6-6-6-|
D|---X-X-X-X---X-X-X--6--X-X-X-X--X-X-X-X--X-X-X-X--X-X-X-X--X-X-X-X-|
A|---6-6-6-6---4-4-X--X--6-6-6-6--7-7-7-7--4-4-4-4--2-2-2-2--4-4-4-4-|
E|-----------------X--4----------------------------------------------|

e|------------------------------|
B|------------------------------|
G|---8-8-8-8---9~~~-------------|
D|---X-X-X-X---X~~~-------------|
A|---6-6-6-6---7~~~-------------|
E|------------------------------|

Pre-Chorus

(Guitar 1) ~ With Slight Distortion (Let Chords Ring) + Keyboard plays C#m, A, E, B X 3	
C#m, A, E, B, E 
(Main Riff only joins in second time through)

(Guitar 2) ~ With Slight Distortion

e|-------------------------------------------------------------------|
B|-------------------------------------------------------------------|
G|-------------------------------------------------------------------|
D|-------------11-------11----9-------9------------------------------|
A|-----9/11--------------------------------11-------11----9----------|
E|-------------------------------------------------------------12~~~-|
										
e|-------------------------------------------------------------------|
B|-------------------------------------------------------------------|
G|-------------------------------------------------------------------|
D|-------------11-------11----9-------9------------------------------|
A|-----9/11--------------------------------11-------11----9----------|
E|-------------------------------------------------------------11~~~-|

Chorus

Acoustic Guitar + Keyboard plays E, B, C#m, A, E    X 2

(Guitars 1 & 2) ~ With slight Distortion
	  X16	    X16		X8
e|-----12--------11--------12--------7-7-7-7-----7--7--7--7-----------|
B|-----12--------12--------12--------9-9-9-9-----10-10-10-10----------|
G|--------------------------------------------------------------------|
D|--------------------------------------------------------------------|
A|--------------------------------------------------------------------|
E|--------------------------------------------------------------------|

	  X16	    X16		X8
e|-----12--------11--------12--------7-7-7-7-----7--7--7--7-----------|
B|-----12--------12--------12--------9-9-9-9-----10-10-10-10----------|
G|--------------------------------------------------------------------|
D|--------------------------------------------------------------------|
A|--------------------------------------------------------------------|
E|--------------------------------------------------------------------|


	  X16	    X16		X8
e|-----12--------11--------12--------7-7-7-7-----7--7--7--7-----------|
B|-----12--------12--------12--------9-9-9-9-----10-10-10-10----9~~~--|
G|--------------------------------------------------------------9~~~--|
D|--------------------------------------------------------------------|
A|--------------------------------------------------------------------|
E|--------------------------------------------------------------------|



(Guitar 3/Piano Riff) ~ With delay

e|------------12~~~-----------11~~~-----------12~~~---|
B|------9h10------------9h10------------9h10----------|
G|---9--------------8---------------9-----------------|		X 3		
D|----------------------------------------------------|
A|----------------------------------------------------|
E|----------------------------------------------------|

Fade out with Keyboards

End on E

One of the best songs from ‘A Beautiful Exchange’

Hope you enjoy it!!!




************************************

| /   slide up
| \   slide down
| h   hammer-on
| p   pull-off
| ~   vibrato
| +   harmonic
| x   Mute note
| b   Bend
| pb  Pre-bend
| br  Bend release
| pbr Pre-bend release
| brb Bend release bend

************************************
comments
print report bad tab
1 comment total.
0 reply
izak.atak 2,172 wrote on August 27 2011, 02:58 pm

nicely done. thanks for the tab. :)

I want to post or [tab]
guest
You may want to rate the tab now too:
select rating
Please do not post tabs as comments. Select "correction" instead!