Oops, an error
Loading. Please wait.

Perfect Love Guitar Pro

4,431 views 1 this week
1 commentread comment
1 2 3 4 5
1 last vote to show rating
add to favorites
guitar tuner
Autoscroll
slow
fast
+/-
esc
set tempo
stop
Author
File Format
Filesize
Instruments
.gp5
53 Kb
rhythm_guitars #2, lead_guitars, basses, percussions, vocals, others
"Perfect Love"
demo version
Play now

or get full version for Free

×
Get full version now!
Learn and play this song
in Tab Pro
Try for free

or get $10 off Welcome Bonus

Get welcome bonus
Get access to Tab Pro version of “Perfect Love”!
Tab Pro is a premium guitar tab service, available on PC, Mac, iOS and Android
TRY FOR FREE
Your download will start in 7 seconds
×
Like this song? We have more! Follow us on Facebook for daily tips, lessons and other guitar-related content.
To download “Perfect Love” Guitar Pro tab click button below
Please note that you must have Guitar Pro software installed on your
computer in order to view this file.
Suggest correction
Give kudos to tab author, rate the tab!
1 2 3 4 5
comments
report bad tab
1 comment total.
0 reply
all your dreams 574 Feb 24, 2009 10:38 AM

it's a good job ya! The bass goes like this on the 2nd verse :

G|----------------------------------------------------------------|
D|----------9---9---------------9---9-----------------------------|
A|--11--11---------9h11---7--7---------7h9---------------9--7-7---|
E|-------------------------------------------7--7--7--7-----------|

G|--------------------------------------------------------------|
D|----------9--9---------------9--9-----------------------------|
A|--11--11---------9h11---7--7-------7h9-----------9(x4)-11(x4)-|
E|-----------------------------------------7-7-7-7--------------|

Gob bless you again!

guest
You may want to rate the tab now too:
select rating