Oops, an error
Loading. Please wait.

Running Tab

version 1
version 1

Intro

Whole song

13,737 views 36 this week
3 commentsread comments
1 2 3 4 5
accurate
x 5
add to favorites
launch autoscroll
font size
0
reset
how to read this tab
guitar tuner
Tab Pro tools
  • play this tab
  • loop segment
  • change instrument
  • show fretboard
  • metronome
Autoscroll
slow
fast
+/-
esc
set tempo
stop
Contributor
Difficulty
intermediate
This is on the new album Cornerstone.  It's a fun song to play and it's pretty 
simple once you get it down.  It's got a triplet feel to it and the chorus can be 
a bit tricky for the lead.  But just practice with a metronome or the song and you'll get it

Intro Lead
e|-14--14--------------14--14---------|
b|---16--16--14\12-------16--16--7/9--|
g|------------------------------------|
d|------------------------------------|
a|------------------------------------|
E|------------------------------------|

Prechorus Lead (triplets)
e|------------------------------------|
b|-12-12-12-12-12-12-12-12-12-12-12-12|
g|------------------------------------|
d|------------------------------------|
a|------------------------------------|
E|------------------------------------|

Chorus Lead (triplet feel)
e|--------------------------16-------------|
b|-19p16---19p16---19p16-----19p16---------|
g|-------16------16------16---------18p16--|
d|-----------------------------------------|
a|-----------------------------------------|
E|-----------------------------------------|

Bridge
e|----------------|
b|----------------|
g|-6--8-9--4------|
d|-x--x-x--x--4---|
a|-4--6-7--2--x---|
E|------------2---|



Chords - Intro, Pre-Chorus, Chorus

||B---|E---|G#m---|--E-||

Bridge

||C#m---|E---|B---|F#---||



That's pretty much it
Enjoy!
comments
print report bad tab
3 comments total.
+1 reply
ChevelleGT88 wrote on August 17 2012, 05:53 pm

For the intro part, it's way easier to play it like this:

e-14-11--14-11----------14-11--14-11-------
b--------------14-12-----------------11-13-
g------------------------------------------

+1 reply
ChevelleGT88 wrote on August 17 2012, 05:55 pm

Oops. Here's the right way!

e-14-11--14-11----------14-11--14-11-------
b--------------14-12-----------------------
g------------------------------------11-13-

0 reply
GrangerK16 wrote on August 22 2012, 02:57 am

Also for the bridge, the lead is playing

e-12---12---------|
b-14---9--12--11- |
g-13---9--11--11- |
d----------9-- 11-|
a-----------------|
E-----------------|

forgot that part when I charted this out...

I want to post or [tab]
guest
You may want to rate the tab now too:
select rating
Please do not post tabs as comments. Select "correction" instead!