Oops, an error
Loading. Please wait.

Sanctuary Lord Prepare Me Tab

43 views 3 this week
no commentswrite comment
1 2 3 4 5
3 more votes to show rating
add to favorites
launch autoscroll
font size
0
reset
how to read this tab
guitar tuner
Autoscroll
slow
fast
+/-
esc
set tempo
stop
Help us to improve Ultimate-Guitar.com Take our survey!
×
Difficulty
intermediate
Tempo = 170


[Solo]

e|---2-----0----------------------------------2-----5--5--------0--0----------0--|
B|---3-----3-----3-----------3-------3--3-----3--------3-----3-----3-------------|
G|---2--2-----2--2-----2-----------2----2-----2--2-----3--3--------3----3--------|
D|---0-----------0--------0------0------0-----0--------3-----------3-------3-----|
A|------------------0----------0----------0---------------------------0----------|
E|-------------------------------------------------------------------------------|

e|--0-----2-----2---3--------2---------------2-----0-------------2------2--3--2--0-|
B|--3-----3---------0-----0----3----------3--3-----3-----3------------3------------|
G|--3--3--2--2------0--0------------3--------2--2-----2--2----------2--------------|
D|--3-----0--------------------0-------0-----0-----------0-------0-----------------|
A|--------------------------------0---------------------------0------------------0-|
E|------------------3--------------------------------------------------------------|

e|---2-----0----------------------------------2-----5--5--------0--0----------0----|
B|---3-----3-----3-----------3-------3--3-----3--------3-----3-----3---------------|
G|---2--2-----2--2-----2-----------2----2-----2--2-----3--3--------3----3----------|
D|---0-----------0--------0------0------0-----0--------3-----------3-------3-------|
A|------------------0----------0----------0---------------------------0------------|
E|---------------------------------------------------------------------------------|

e|--0-----2-----2---3--------2---------------2-----0--------------------------------|
B|--3-----3---------0-----0----3----------3--3-----3-----3--3-----------3-----------|
G|--3--3--2--2------0--0------------3--------2--2-----2-----2-----2-----------------|
D|--3-----0--------------------0-------0-----0--------------0--------0--------------|
A|--------------------------------0----------------------------0--------------------|
E|------------------3---------------------------------------------------------------|
Suggest correction
Give kudos to tab author, rate the tab!
1 2 3 4 5
comments
print report bad tab
guest
You may want to rate the tab now too:
select rating
Wanna post a correction for this tab? Suggest correction