Oops, an error
Loading. Please wait.

Search My Heart Tab

3,997 views 6 this week
no commentswrite comment
1 2 3 4 5
please rate
add to favorites
launch autoscroll
font size
0
reset
how to read this tab
guitar tuner
Tab Pro tools
  • play this tab
  • loop segment
  • change instrument
  • show fretboard
  • metronome
×
Best way to learn
"Search My Heart"
Autoscroll
slow
fast
+/-
esc
set tempo
stop
Contributor
Difficulty
novice
Artist: Hillsong United
Album: Aftermath
Song: Search My Heart


Tabbed by: magicberu/frenchboy

Intro:

e|---------------------------------------------------------------------------|
B|5-3-5----------------------------5-3-5-------------------------------------|
G|------------5-4-2---------------------------5-4-2--------------------------|
D|---------------------------------------------------------------------------|
A|---------------------------------------------------------------------------|
E|---------------------------------------------------------------------------|


Verse 1:

e|---------------------------------------------------------------------------|
B|-5-3-5-----------------------------5-3-5-----------------------------------|
G|-------------5-4-2-----------------------------5-4-2-----------------------|
D|---------------------------------------------------------------------------|
A|---------------------------------------------------------------------------|
E|---------------------------------------------------------------------------|

e|---------------------------------------------------------------------------|
B|-5-3-5----8-6-5b5-----------------5-3-5----8-6-5b5-------------------------|
G|--------5--------------------------------5---------------------------------|
D|---------------------------------------------------------------------------|
A|---------------------------------------------------------------------------|
E|---------------------------------------------------------------------------|


Instrumental (1:11):

e|---------------------------------------------------------------------------|
B|-5-3-5---------------------------------------------------------------------|
G|-------------5-4-2---------------------------------------------------------|
D|---------------------------------------------------------------------------|
A|---------------------------------------------------------------------------|
E|---------------------------------------------------------------------------|



Verse 2 (1:24):

e|---------------------------------------------------------------------------|
B|-5-3-5----8-6-5b5-----------------5-3-5----8-6-5b5-------------------------|
G|--------5--------------------------------5---------------------------------|
D|---------------------------------------------------------------------------|
A|---------------------------------------------------------------------------|
E|---------------------------------------------------------------------------|

e|---------------------------------------------------------------------------|
B|-5-3-5----8-6-5b5-----------------5-3-5----8-6-5b5-------------------------|
G|--------5--------------------------------5---------------------------------|
D|---------------------------------------------------------------------------|
A|---------------------------------------------------------------------------|
E|---------------------------------------------------------------------------|



Chorus 1 (2:10) (x2):


e|---------------------------------------------------------------------------|
B|-----3-------3-------3-------3---------3-------3-------3-------3-----------|
G|---3-------3-------3-------3---------4-------4-------4-------4-------------|
D|-3-------3-------3-------3---------5-------5-------5-------5---------------|
A|---------------------------------------------------------------------------|
E|---------------------------------------------------------------------------|

e|---------------------------------------5-------5-------5-------5-----------|
B|-----5-------5-------5-------5-------6-------6-------6-------6-------------|
G|---5-------5-------5-------5-------5-------5-------5-------5---------------|
D|-7-------7-------7-------7-------------------------------------------------|
A|---------------------------------------------------------------------------|
E|---------------------------------------------------------------------------|


Instrumental (2:40):

e|---------------------------------------------------------------------------|
B|-5-3-5---------------------------------------------------------------------|
G|-------------5-4-2---------------------------------------------------------|
D|---------------------------------------------------------------------------|
A|---------------------------------------------------------------------------|
E|---------------------------------------------------------------------------|


Verse 1 (2:50):

e|---------------------------------------------------------------------------|
B|-5-3-5----8-6-5b5-----------------5-3-5----8-6-5b5-------------------------|
G|--------5--------------------------------5---------------------------------|
D|---------------------------------------------------------------------------|
A|---------------------------------------------------------------------------|
E|---------------------------------------------------------------------------|



Chorus 2 (3:12) (x2): Am   G   C/E    F



Bridge (4:11) (x3):

e|---------------------------------------------------------------------------|
B|---------------------------------------------------------------------------|
G|---------------------------------------------------------------------------|
D|---------3-2-0-2----------------5------------------------------------------|
A|---------------------3-----------------------------------------------------|
E|-1-------------------------------------------------------------------------|



Chorus 3 (4:40) (x2):

Guitar 1:

e|---------------------------------------------------------------------------|
B|-5-5-5-5-5-5-5-5-5-5-5-5-5-5-5-5--3-3-3-3-3-3-3-3-3-3-3-3-3-3-3-3----------|
G|-5-5-5-5-5-5-5-5-5-5-5-5-5-5-5-5--4-4-4-4-4-4-4-4-4-4-4-4-4-4-4-4----------|
D|---------------------------------------------------------------------------|
A|---------------------------------------------------------------------------|
E|---------------------------------------------------------------------------|

e|---------------------------------------------------------------------------|
B|-5-5-5-5-5-5-5-5-5-5-5-5-5-5-5-5/10-10-10-10-10-10-10-10-10-10-10-10-10-10-|
G|-5-5-5-5-5-5-5-5-5-5-5-5-5-5-5-5/10-10-10-10-10-10-10-10-10-10-10-10-10-10-|
D|---------------------------------------------------------------------------|
A|---------------------------------------------------------------------------|
E|---------------------------------------------------------------------------|

e|---------------------------------------------------------------------------|
B|-10-10-10-10\5-5-5-5-5-5-5-5-5-5-5-5-5-5-5-5-------------------------------|
G|-10-10-10-10\5-5-5-5-5-5-5-5-5-5-5-5-5-5-5-5-------------------------------|
D|---------------------------------------------------------------------------|
A|---------------------------------------------------------------------------|
E|---------------------------------------------------------------------------|

e|---------------------------------------------------------------------------|
B|-3-3-3-3-3-3-3-3-3-3-3-3-3-3-3-3--5-5-5-5-5-5-5-5-5-5-5-5-5-5-5-5/---------|
G|-4-4-4-4-4-4-4-4-4-4-4-4-4-4-4-4--5-5-5-5-5-5-5-5-5-5-5-5-5-5-5-5/---------|
D|---------------------------------------------------------------------------|
A|---------------------------------------------------------------------------|
E|---------------------------------------------------------------------------|

e|---------------------------------------------------------------------------|
B|-10-10-10-10-10-10-10-10-10-10-10-10-10-10-10-10---------------------------|
G|-10-10-10-10-10-10-10-10-10-10-10-10-10-10-10-10---------------------------|
D|---------------------------------------------------------------------------|
A|---------------------------------------------------------------------------|
E|---------------------------------------------------------------------------|

Guitar 2: C  G  Am  F (C)



Ending:

e|-8-------------------------------------------------------------------------|
B|----------5-3-5------------------------------------------------------------|
G|--------------------------5-4-2--------------------------------------------|
D|---------------------------------------------------------------------------|
A|---------------------------------------------------------------------------|
E|---------------------------------------------------------------------------|




| /   slide up
| \   slide down
| h   hammer-on
| p   pull-off
| ~   vibrato
| +   harmonic
| x   Mute note
| b   Bend
| pb  Pre-bend
| br  Bend release
| pbr Pre-bend release
| brb Bend release bend
comments
We did not receive enough feedback on this tab! Please rate:
print report bad tab
1 2 3 4 5
I want to post or [tab]
guest
You may want to rate the tab now too:
select rating
Please do not post tabs as comments. Select "correction" instead!