Oops, an error
Loading. Please wait.

Take It All Bass Tab

version 2
version 2

Whole song

Interactive

3,430 views 1 this week
1 commentread comment
1 2 3 4 5
3 more votes to show rating
add to favorites
launch autoscroll
font size
0
reset
guitar tuner
Autoscroll
slow
fast
+/-
esc
set tempo
stop
Help us to improve Ultimate-Guitar.com Take our survey!
×
Author
Difficulty
novice
Tabbed by: jimbo james
Song: take it all
Artist: sing song


Intro/ verse           x10                                prechorus  x1
G|------------------------                       G|---------------------|
D|--------------111-------                       D|---------------------|
A|222-222-222111----------                       A|---------------------|
E|------------------------                       E|4444444-0000000------|


Chorus x1
G|----------------------------------------------------------------|
D|----------------------------------------------------------------|
A|222222-----------------------2222222-------4-4-444-4-4-444------|
E|------2222222-4444444-0000000-------2222222---------------------|


Intro/verse x5 and prechorus

Chorus x2

Bit b4 bridge
G|-----------------|
D|-----------------|
A|444444444--------|
E|-----------------|

Bridge x2	in between the bridge and chorus
G|-------------------------------  G|--------------------------------------|
D|-------------------------------  D|----------------111-------------------|
A|44---------44-----44---------22  A|222-222-222111---x5---4-4-444-4-4-444-|
E|--44-22-00~--44-22---44-22-00--  E|--------------------------------------|


Chorus x1
Outro
G|----------------------------------------------------------------------------|
D|----------------------------------------------------------------------------|
A|2222222----------------------2222222------4-4-444-4-4-444-4-4-444-4-4-444~~-|
E|-------2222222-444444-0000000-------2222222---------------------------------|
Suggest correction
Give kudos to tab author, rate the tab!
1 2 3 4 5
comments
print report bad tab
1 comment total.
0 reply
da_guitar_boi 20 Nov 17, 2006 10:27 AM

when i listened to the cd this sounded right and thats what it looked like when i saw them play live. on the intro/verse riff it should be like this:

G|-----------------------------------|
D|--------------------------------1--|
A|-1h2-2-2--1h2-2-2--1h2-2-2--1-1----|
E|-----------------------------------|

guest
You may want to rate the tab now too:
select rating
Wanna post a correction for this tab? Suggest correction