Oops, an error
Loading. Please wait.

Take It All Tab

version 2
version 2

Whole song

Interactive

12,324 views 6 this week
4 commentsread comments
1 2 3 4 5
accurate
x 5
add to favorites
launch autoscroll
font size
0
reset
how to read this tab
guitar tuner
Autoscroll
slow
fast
+/-
esc
set tempo
stop
Help us to improve Ultimate-Guitar.com Take our survey!
×
Difficulty
novice
My first tab so please rate it 5, and i'm 100% this is correct.
Guitar 2 ONLY!!! It's all I know
Got any questions?:sasuvsnaru02@yahoo.com
Thankx



VERSE 1:
Searching the world 
The lost will be found 
In freedom we live 
As one we cry out 
You carried the cross 
You died and rose again 
My God 
I’ll only ever give my all 

E|--------------------|
B|--------------------|
B|--------------------|
G|----------------88--|
D|-999--999--9998888--|
A|-999--999--9998866--|
E|-777--777--77766----|
                       Play x5 then

E|--------------------|
B|--------------------|
G|----------11111111--|
D|-666-666--22222222--|
A|-666-666--22222222--|
E|-444-444------------|
      
You sent Your Son 
From heaven to earth 
You delivered us all 
It’s eternally heard 
I searched for truth 
And all I found was You 
My God 
I’ll only ever give my all 

______________________________________________

CHORUS:
E|-----------------------------------------|
B|-----------------------------------------|
G|-4-444444----------------------1-111111--|
D|-4-444444--4-444444--6-666666--2-222222--|
A|-2-222222--4-444444--6-666666--2-222222--|
E|-----------2-222222--4-444444------------|

E|----------------------------------|
B|----------------------------------|
G|-4-444444----------------------6--|
D|-4-444444--4-444444--6-666666--6--|
A|-2-222222--4-444444--6-666666--4--|
E|-----------2-222222--4-444444-----|

Jesus we’re living for Your Name 
We’ll never be ashamed of You 
Whoa o oh 
Our praise and all we are today 
Take take take it all 
Take take take it all 

_______________________________________________

Repeat VERSE 1 (You sent Your Son...) without the first part (searching the world...)

_______________________________________________

Repeat CHORUS and play TWICE!

_______________________________________________

BRIDGE:
E|-------------------------|
B|-------------------------|
G|-------------------------|
D|-4444--6666--8888--9999--|
A|-4444--6666--8888--9999--|
E|-2222--4444--6666--7777--|

________________________________________________


E|-------------------------------------------------------------------|
B|-------------------------------------------------------------------|
G|-666---------11---666----------666---------11-1--4444444444444444--|
D|-666--6--44--22---666--6--44---666--4--44--22-2--4444444444444444--|
A|-444--6--44--22---444--6--44---444--4--44--22-2--2222222222222222--|
E|------4--22------------4--22--------6--22--------------------------|
                                                   Play x2

Running to the One 
Who heals the blind 
Following the shining light 
In Your hands 
The power to save the world 
In my life 

Running to the One 
Who heals the blind 
Following the shining light 
In Your hands 
The power to save the world 
In my life 

________________________________________________

Bass Guitar Interlude

G|----------------------------------------|
D|----------------------------------------|
A|----------------66------------------66--|
E|-777--777--77766-----777--777--77766----|

________________________________________________

small CHORUS:
E|-----|
B|-----|
G|--6--|     Play only on the
D|--6--|     first "Take"
A|--4--|
E|-----|
            
Jesus we’re living for Your Name 
We’ll never be ashamed of You 
Whoa o oh 
Our praise and all we are today 
Take take take it all 
Take take take it all 

________________________________________________

Then play CHORUS twice. At the last "all" play

E|-----|
B|-----|
G|-----|
D|-99--|
A|-99--|
E|-77--|




That's it!!! Enjoi and have fun, but please don't show off, lol
THANX Kuya Juan!
Suggest correction
comments
print report bad tab
4 comments total. Showing first comments.
0 reply
adr1an 10 wrote on September 20 2007, 09:39 pm

niiiiceee!!good job man.

0 reply
G-lopez738 10 wrote on December 20 2007, 10:37 am

E|-----|
B|-----
-----|
G|-666-----11---666-----6
66-----11-1--44444--|
D|-666--6--44--22---666-
-6--44---666--4--44--22-2
--44444--|
A|-444--6--44--22---444--
6--44---444--4--44--22-2-
-22222--|

E|-----4--22-----4--22---
--6--22-----|

u need a fill in here that goes

G:-----10-----
D:8-9-8---8-9-8 and the chorus when it says take take take it all
it should go...

B:4-4-4-7-4 (Times 2)

and the begining for lead guitar is (has echo
efect)
E:-----14--14--/16
B:14-14-14-12-12-12-11-11
-11--11--11---

you the rest right dude good
job! oh one more thing

when they say My God
I’ll only ever give my all

its fun to bounce it and play
this


A:
E:4--4-4-00-0-0

0 reply
Waylon F 30 wrote on January 24 2008, 06:18 pm

good job, but as u say u dont have guitar 1 in it, so i tabbed out guitar 1 on my tab of this song. its on my profile.
waylon f

guest
You may want to rate the tab now too:
select rating
Please do not post tabs as comments. Select "correction" instead!