Oops, an error
Loading. Please wait.

Take It All Tab

version 4
version 4

Intro

Whole song

Interactive

3,214 views 1 this week
no commentswrite comment
1 2 3 4 5
worth learning
x 1
add to favorites
launch autoscroll
font size
0
reset
how to read this tab
guitar tuner
Tab Pro tools
  • play this tab
  • loop segment
  • change instrument
  • show fretboard
  • metronome
×
Best way to learn
"Take It All"
Autoscroll
slow
fast
+/-
esc
set tempo
stop
Contributor
-------------------------------------------------------------------------------
                        take it all (mighty to save album)- hillsongs
-------------------------------------------------------------------------------
Tabbed by:waylon f
Email:dashizelmanizel@hotmail.com
d
my first tab, rate please 

Tuning:standard

tabbed for guitar 1 and guitar 2
intro starts with bass check for timing
guitar 1 intro
e|----9-----------------9h11------9-----------------------------------------|
B|----------12----11---------------------12---11---11p12r11-----------------|
G|-11----11-----11-------------11-----11--------------------11--------------|x2
D|9----9-------9------9-------9-----9-------9----9--------------------------|
A|--------------------------------------------------------------------------|
E|--------------------------------------------------------------------------|
verse:guitar 1, half way through verse 
e|----9-----------------9h11------9-----------------------------------------|
B|----------12----11---------------------12---11---11p12r11-----------------|
G|-11----11-----11-------------11-----11--------------------11--------------|x2
D|9----9-------9------9-------9-----9-------9----9--------------------------|
A|--------------------------------------------------------------------------|
E|--------------------------------------------------------------------------|

verse:guitar 2, half way through verse when guitar 1 plays riff
e|---------------------------------------------------------------------------|
B|---------------------------------------------------------------------------|
G|---------------------------------------------------------------------------|
D|666x-666x-666x-666x-666x-666x-666x-666x------------------------------------|
A|666x-666x-666x-666x-666x-666x-666x-666x------------------------------------|
E|444x-444x-444x-444x-444x-444x-444x-444x------------------------------------|
during singing guitar 2 plays:
e|---------------------------------------------------------------------------|
B|---------------------------------------------------------------------------|
G|---------------------------------------------------------------------------|
D|---------------------------66x-66x-22~~------------------------------------|
A|--------------66-times-3---66x-66x-22~~------------------------------------| 
E|777x-777x-7766-------------44x-44x-00~~------------------------------------|
chorus: both guitars
e|---------------------------------------------------------------------------|
B|---------------------------55555555----------------------------------------|
G|44444444-------------------44444444----------------------------------------|
D|44444444-44444444-66666666-22222222----------------------------------------|
A|22222222-44444444-66666666-22222222----------------------------------------|
E|---------22222222-44444444-00000000----------------------------------------|
chorus 2nd half: guitar 1
e|--------------------------------------------------------------------------|
B|---------------(im guessing this part)------11p12r11p12r11p12r11p12r11p12~|
G|44444444-------------------------------------8-p9-r8-p9-r8-p9-r8-p9-r8-p9~|
D|44444444-44-2p3r2p3r2-----------------------------------------------------|
A|22222222-44---------------------------------------------------------------|
E|---------22---------------------------------------------------------------|
chorus 2nd half: guitar 2
e|---------------------------------------------------------------------------|
B|---------------------------------------------------------------------------|
G|44444444-------------------------------------------------------------------|
D|44444444-44444444x-6~------------------------------------------------------|
A|22222222-44444444x-6~------------------------------------------------------|
E|---------22222222x-4~------------------------------------------------------|
verse 2 guitar 1: repeat 2nd half of verse 1
verse 2 guitar 2: repeat 2nd half of verse 1

repeat chorus

bridge(bit after chorus and before the singing starts in the bridge)guitar 1:
e|---------------------------------------------------------------------------|
B|12-12-12-12-14-14-14-14-16-16-16-16-17-17-17-17----------------------------|
G|---------------------------------------------------------------------------|
D|---------------------------------------------------------------------------|
A|---------------------------------------------------------------------------|
E|---------------------------------------------------------------------------|

bridge(bit after chorus and before the singing starts in the bridge)guitar 2:
e|---------------------------------------------------------------------------|
B|---------------------------------------------------------------------------|
G|---------------------------------------------------------------------------|
D|---------------------------------------------------------------------------|
A|---------------------------------------------------------------------------|
E|7-7-7-7-9-9-9-9-11-11-11-11-12-12-12-12------------------------------------|

bridge guitar 1
e|---------------------------------------------------------------------------|
B|---------------------------------------------------------------------------|
G|66x-------------66x---------3p4r3-66x-------------4444444444444444---------|
D|66x-66x-44x-22~-66x-66x-44~-------66x-66x-44x-22~-4444444444444444-x2------|
A|44x-66x-44x-22~-44x-66x-44~-------44x-66x-44x-22~-2222222222222222---------|
E|----44x-22x-00~-----44x-22~-----------44x-22x-00~--------------------------|

bridge guitar 2
e|---------------------------------------------------------------------------|
B|---------------------------------------------------------------------------|
G|66x-------------66x---------------66x-------------4444444444444444---------|
D|66x-66x-44x-22~-66x-66x-44~-------66x-66x-44x-22~-4444444444444444-x2------|
A|44x-66x-44x-22~-44x-66x-44~-------44x-66x-44x-22~-2222222222222222---------|
E|----44x-22x-00~-----44x-22~-----------44x-22x-00~--------------------------|

chorus no guitars 
next half of chorus at the "take take take it all, take take take it all"
guitar 1:
e|--------------------------------------------------------------------------|
B|-(im guessing this part sorry)11p12r11p12r11p12r11p12r11p12~--------------|
G|------------------------------8-p9-r8-p9-r8-p9-r8-p9-r8-p9~---------------|
D|--------------------------------------------------------------------------|
A|--------------------------------------------------------------------------|
E|--------------------------------------------------------------------------|
guitar 2:

e|---------------------------------------------------------------------------|
B|---------------------------------------------------------------------------|
G|---------------------------------------------------------------------------|
D|6~~~~~~~-------------------------------------------------------------------|
A|6~~~~~~~-------------------------------------------------------------------|
E|4~~~~~~~-------------------------------------------------------------------|

repeat chorus 1

ending bit guitar 1:
e|-------------------------------------------------6p7r6---------------------|
B|12-12-12-12-14-14-14-14-16-16-16-16-17-17-17-17----------------------------|
G|--------------------------------------------------------3p4r3--------------|
D|---------------------------------------------------------------------------|
A|---------------------------------------------------------------------------|
E|---------------------------------------------------------------------------|
| /  slide up
| \  slide 
| h  hammer-on
| p  pull
| r  release
| ~  vibrato
| +  harmonic
| x  Mute note
===============================================================================
comments
We did not receive enough feedback on this tab! Please rate:
print report bad tab
1 2 3 4 5
I want to post or [tab]
guest
You may want to rate the tab now too:
select rating
Please do not post tabs as comments. Select "correction" instead!