Oops, an error
Loading. Please wait.

The Difference bass

1,437 views 1 this week
no commentswrite comment
1 2 3 4 5
3 more votes to show rating
add to favorites
×
Save as Personal and add changes to this tab that will be seen only by you. Learn more ›
×
You can save this tab as Personal to edit and correct it or add notes. All changes will be seen only by you. Learn more »
launch autoscroll
font size
0
reset
guitar tuner
edit
Autoscroll
slow
fast
+/-
esc
set tempo
stop
Author
Difficulty
-------------------------------------------------------------------------------
                             The Difference - Hillsongs
-------------------------------------------------------------------------------
Tabbed by: Matt
E-mail: mattymanten@gmail.com

 For everything outside of the intro, just play eighth notes over and over.

Tuning:E A D G (Standard)

 Intro: x4
 Pre-Chorus
 Chorus
 Intro x2
 Verse
 Pre-Chorus
 Chorus
 Bridge x3
 Chorus 
 intro x2

G|---------------------------------------------------------------------------|
D|------9--11------------------------------0---------------------------------|
A|--0-----------0--12--9--0--9--12--0--9-------0--9--12--12------------------|
E|---------------------------------------------------------------------------|

 Verse: 

G|---------------------------------------------------------------------------|
D|---------------------------------------------------------------------------|
A|-0-----------------------------5---------------0--------------------------5|
E|-----------------2--------------------------------------------2------------|

 Pre-Chorus:

G|---------------------------------------------------------------------------|
D|---------------------------------------------------------------------------|
A|--2--------------5---------------------------------------------------------|
E|---------------------------------------------------------------------------|

 Chorus:

G|---------------------------------------------------------------------------|
D|---------------------------------------------------------------------------|
A|--0---------------5----------------------------5-------------0------------5|
E|---------------------------------2-----------------------------------------|

G|---------------------------------------------------------------------------|
D|---------------------------------------------------------------------------|
A|------------------5--------------------------------------------------------|
E|--2------------------------------------------------------------------------|

 Bridge: 

G|---------------------------------------------------------------------------|
D|---------------------------------------------------------------------------|
A|--12---------------5--------------------------------------------5----------|
E|---------------------------------2-------------0---------------------------|



| /  slide up
| \  slide down
| h  hammer-on
| p  pull-off
| ~  vibrato
| +  harmonic
| x  Mute note
===============================================================================

            
            
Suggest correction
Creating personal tab
Creating personal tab
You can edit any tab online and save it as your Personal.

You can edit, replace or remove any tab part or add personal notes – all changes will be seen only by you.

Personal tabs can be accessed anytime from any device, even offline.
Learn more »
Give kudos to tab author, rate the tab!
1 2 3 4 5
comments
print report bad tab
guest
You may want to rate the tab now too:
select rating
Wanna post a correction for this tab? Suggest correction