Oops, an error
Loading. Please wait.

To The Ends Of The Earth Tab

version 1
version 1

Whole song

56,182 views 9 this week
4 commentsread comments
1 2 3 4 5
excellent!
x 11
add to favorites
launch autoscroll
font size
0
reset
how to read this tab
guitar tuner
Autoscroll
slow
fast
+/-
esc
set tempo
stop
Help us to improve Ultimate-Guitar.com Take our survey!
×
To the ends of the earth

Submitted By: Mark Ruelson

Intro: Em C2 G D
e-----------------------------------------------|
B-8-7-5-3-5-7-8-7-5-3-5-7-8-7-5-3-5-7-8-7-5-3-5-|
G-----------------------------------------------|
D-----------------------------------------------|
A-----------------------------------------------|
E-----------------------------------------------|

VERSE:
Em    C2 
Love unfailing 
G      D           Em C2
Overtaking my heart
G          D
You take me in
Em           C2
Finding peace again
G           D             C2
Fear is lost in all you are

PRE CHORUS:
D          
And i would give the world 
                Em
To tell your story
                                 C2
'Cause I know that you've called me
                            G
I know that you've called me
D
I've lost myself for good
               C2
Within your promise 
                Em 
And I won't hide it
             C2
I won't hide it

CHORUS:
G
Jesus I beleive in you 
   D
And I would go
       Am7
TO the ends of the earth
       C2
To the ends of the earth
       G
For you alone are the Son of God
   F2
And the world will see
               Am7
That you are God
             C2
That you are God

SOLO:
e----------------------------12-15----12----12----10---|
B------7-8-----------8s12-10-------15----12----10------|
G--7s9-----7-----7-9-----------------------------------|
D------------7-9---------------------------------------|
A------------------------------------------------------|
E------------------------------------------------------|

-----------------------10-10--|
-12-10-12------8-10-12--------|
----------11-9----------------|
------------------------------|
------------------------------|
------------------------------|
s = slide

GOD BLESS!!!
Suggest correction
comments
print report bad tab
4 comments total. Showing first comments.
0 reply
LJHarris 123 wrote on February 20 2009, 10:55 pm

You could play intro like this to

e--3-2-0---0-2-3-2-0---2-3-0--------------------|
B--------3-----------3--------------------------|
G-----------------------------------------------|
D-----------------------------------------------|
A-----------------------------------------------|
E-----------------------------------------------|

0 reply
LJHarris 123 wrote on February 20 2009, 10:57 pm

should be open e at end between 3 on the b and 2 on the e.

0 reply
sstevko 31 wrote on July 4 2013, 01:09 am

e--0-0-0-0-0-0-0-0-0-0-0-0-0-0-0-0-0-0-0-0-0-0--|
B-8-7-5-3-5-7-8-7-5-3-5-7-8-7-5-3-5-7-8-7-5-3-5-|
G-----------------------------------------------|

..for intro try variations with delay and open "e" string

guest
You may want to rate the tab now too:
select rating
Wanna post a correction for this tab? Suggest correction