Oops, an error
Loading. Please wait.

With All I Am Tab

version 1
version 1

Whole song

Interactive

15,510 views 27 this week
no commentswrite comment
1 2 3 4 5
accurate
x 3
add to favorites
launch autoscroll
font size
0
reset
how to read this tab
guitar tuner
Autoscroll
slow
fast
+/-
esc
set tempo
stop
Help us to improve Ultimate-Guitar.com Take our survey!
×
Author
Lino 114
Song: With All I Am
Tabbed by: Lino [lynus4144 (a) y!.com]
Note: This is not 100% accurate.
      Pero medyo malapit na dun sa record.



Intro:
e|-----------------|
B|-----------7--3--|
G|--7--7--6--6--4--|
D|--7--7--7--7--4--|  x2
A|--5--5--5--5--2--|
E|-----------------|

e|-----------------|
B|-----------5--5--|
G|--7--7--7-----6--|
D|--7--7--7-----7--|
A|--5--5--5--------|
E|-----------------|


Verse 1:
     DM7      DM7/C#       Bm       A          G         A
e|-----------------------------------------------------------------|
B|-7-7-7-7---7-7-7-7-------3-3-------------------------------------|
G|-6-6-6-6---6-6-6-6-------4-4-----6-6--------4-4-------6-6--------|
D|-7-7-7-7---7-7-7-7-------4-4-----7-7--------5-5-------7-7--------|
A|-5-5-5-5---4-4-4-4-------2-2-----7-7--------5-5-------7-7--------|
E|---------------------------------5-5--------3-3-------5-5--------|
Into your hand... I commit again... with all I am... for you Lord...


     DM7      DM7/C#                Bm       A          G         A
e|--------------------------------------------------------------------------|
B|-7-7-7-7---7-7-7-7----------------3-3-------------------------------------|
G|-6-6-6-6---6-6-6-6----------------4-4-----6-6--------4-4-------6-6--------|
D|-7-7-7-7---7-7-7-7----------------4-4-----7-7--------5-5-------7-7--------|
A|-5-5-5-5---4-4-4-4----------------2-2-----7-7--------5-5-------7-7--------|
E|------------------------------------------5-5--------3-3-------5-5--------|
You hold my world... in the palm of Your hand... and I am Yours... forever...

     Em         A
e|--------------------|
B|------------2-2-2-2-|
G|------------2-2-2-2-|
D|-2-2-2-2----2-2-2-2-|
A|-2-2-2-2------------|
E|--------------------|


Chorus:
   DM7  DM7/C#  G          DM7   DM7/C#   G
e|-----------------------------------------------|
B|-7-7---7-7---------------7-7----7-7------------|
G|-6-6---6-6---4-4---------6-6----6-6----4-4-----|
D|-7-7---7-7---5-5---------7-7----7-7----5-5-----|
A|-5-5---4-4---5-5---------5-5----4-4----5-5-----|
E|-------------3-3-----------------------3-3-----|
Jesus I believe in You... Jesus I belong to You...

                          Em                         A
e|-------------------------------------------------------|
B|--------------------------------------------------2-2--|
G|--------------------------------------------------2-2--|
D|------------------------2-2-----------------------2-2--|
A|------------------------2-2----------------------------|
E|-------------------------------------------------------|
You're the reason that i live... the reason that i sing...

                    D
e|-------------------------5-----5----------------|
B|----------------------5-----5-------------------|
G|------------------7-----------------------------|
D|------------------7-----------------------------|
A|------------------5-----------------------------|
E|------------------------------------------------|
With all I am...


Verse 2: (Same as Verse 1)

I'll walk with You... wherever You go... through tears and joy... I'll trust in You...

And I will live... in all of Your ways... Your promises... forever...


Bridge:
     DM7     DM7/C#      G        A
e|-------------------------------------|
B|-7-7-7-7--7-7-7-7--------------------|
G|-6-6-6-6--6-6-6-6---4-4-4-4--6-6-6-6-|
D|-7-7-7-7--7-7-7-7---5-5-5-5--7-7-7-7-|
A|-5-5-5-5--4-4-4-4---5-5-5-5--7-7-7-7-|
E|--------------------3-3-3-3--5-5-5-5-|
I will worship... I will worship You....
Suggest correction new What's this?
You can suggest a correction to this tab. Community and Mods will review your correction and vote to approve or reject it.
comments
We did not receive enough feedback on this tab! Please rate:
print report bad tab
1 2 3 4 5
guest
You may want to rate the tab now too:
select rating
Please do not post tabs as comments. Select "correction" instead!