Oops, an error
Loading. Please wait.

With All I Am tab

version 2
version 2

Whole song

  • I simplified the chords of this song to D A Bm G. ... Show more

Interactive

31 views 9 this week
no commentswrite comment
1 2 3 4 5
3 more votes to show rating
add to favorites
×
Save as Personal and add changes to this tab that will be seen only by you. Learn more ›
×
You can save this tab as Personal to edit and correct it or add notes. All changes will be seen only by you. Learn more »
launch autoscroll
font size
0
reset
how to read this tab
guitar tuner
edit
Autoscroll
slow
fast
+/-
esc
set tempo
stop
About this tab version
I simplified the chords of this song to D A Bm G. The difference of this tab from the orig song is its instrumental parts are just made by me. Was this info helpful? Yes No
The song's chord progression is D A Bm G
No tab measures for this

[Intro]

e|---2--2------2---------------------------------|
B|---3--3---2--3--0---0---0----------------------|
G|---2--2---2--2--0---0---0----------------------|
D|---0---------0---------------------------------|
A|----------0------------------------------------|
E|-----------------------------------------------|

e|---2--2------2---------------------------------|
B|---3--3---2--3--0---0---0----------------------|
G|---2--2---2--2--0---0---0----------------------|
D|---0---------0---------------------------------|
A|----------0------------------------------------|
E|-----------------------------------------------|

[Verse 1]
e|--v2-----------2-2-2----------0--0--0s5--0-----|
B|--v3--3-----3--------2-------------------------|
G|--v2-----2-----------2--2---2------------------|
D|--v0-----------0-----2----2---2----------------|
A|-----------------------------------------------|
E|-----------------------------------------------|

e|--------------------------vx--vx---------------|
B|--3-----3--2--2h3------3--v3--v2---------------|
G|--4-4---------------4-----v0--v2---------------|
D|--4---4-------------------v0--v2---------------|
A|--2-----------------------v5--vx---------------|
E|--------------------7-----vx-------------------|

e|--v2-----------2-2-2----------0--0--0s5--0-----|
B|--v3--3-----3--------2-------------------------|
G|--v2-----2-----------2--2---2------------------|
D|--v0-----------0-----2----2---2----------------|
A|-----------------------------------------------|
E|-----------------------------------------------|

e|--------------------------vx--vx---------------|
B|--3-----3--2--2h3------3--v3--v2---------------|
G|--4-4---------------4-----v0--v2---------------|
D|--4---4-------------------v0--v2---------------|
A|--2-----------------------v5--vx---------------|
E|--------------------7-----vx-------------------|

[Chorus]
e|---7--5--5--3--2------2-----2--v3-------7-5-5-3----|
B|---------------3--3-----3------v3-3---3------------|
G|---------------2----2-----2----v0---0--------------|
D|---------------0------0-----0--v0------------------|
A|-------------------------------v2------------------|
E|-------------------------------v3------------------|


e|--2-------2------2--v3------------3s5--3--3--2----|
B|--3--2-------2------v3--3----3--3-----------------|
G|--2----2-------2----v0----0-----------------------|
D|--0-------0------0--v0----------------------------|
A|--------------------v2----------------------------|
E|--------------------v3----------------------------|


e|---3---------2s5--3--3--2--v0------0--0--2--0--v2--|
B|------3---3----------------v2--2---------------v3--|
G|---0----0------------------v2----2-------------v2--|
D|---------------------------v2------2-----------v0--|
A|---------------------------v0----------------------|
E|---------------------------------------------------|

[Instrumental 1]
e|---2-----2-----2------2---------------------------|
B|-----3-----3-----3------3-------------------------|
G|-------2-----2-----2------2-----------------------|
D|----------------------0---------------------------|
A|--------------------------------------------------|
E|--------------------------------------------------|

[Verse 2]
e|--2--------v2--2--2---------0--v0--0--0s5------------|
B|----3---3--v3--------2---------v2----------3---------|
G|------2----v2--------2--2------v2----------4--4------|
D|--0--------v0--------2----2----v2----------4----4----|
A|-------------------------------v0----------2---------|
E|-----------------------------------------------------|

e|-------------------vx---------v2---------v2---2--2---|
B|--3--2---2h3-----3-v3-3-3--2--v3--3---3--v3----------|
G|--------------4----v0---------v2----2----v2----------|
D|-------------------v0---------v0---------v0----------|
A|-------------------v5------4-------------------------|
E|--------------7--------------------------------------|


e|--v0------0--v0--0--0s5-------------------------vx-2-|
B|--v2--2------v2----------3------3--2--2h3--4--3-v3---|
G|--v2----2----v2----------4--2-------------------v0---|
D|--v2---------v2----------4----2-----------------v0---|
A|--vx---------vx----------2----------------------v5-4-|
E|-------------------------------------------7---------|

e|--0-------0-------0----------------------------------|
B|-----2-------2-------2-------------------------------|
G|-------2-------2-------2-----------------------------|
D|--2-------2-------2----------------------------------|
A|-----------------------------------------------------|
E|-----------------------------------------------------|

[Chorus]
e|---7--5--5--3--2------2-----2--v3-------7-5-5-3--|
B|---------------3--3-----3------v3-3---3----------|
G|---------------2----2-----2----v0---0------------|
D|---------------0------0-----0--v0----------------|
A|-------------------------------v2----------------|
E|-------------------------------v3----------------|


e|--2-------2------2--v3------------5--3-3--2------|
B|--3--3-------2------v3--3---3--3-----------------|
G|--2----2-------2----v0----0----------------------|
D|--0-------0------0--v0---------------------------|
A|--------------------v2---------------------------|
E|--------------------v3---------------------------|


e|--3--------5--3--3--2--0-------7--5-5-3----------|
B|----3---3----------------2-----------------------|
G|--0---0--------------------2---------------------|
D|-----------------------2-----2-------------------|
A|-------------------------------------------------|
E|-------------------------------------------------|

e|----2------2-----2--v3-------7-5-5-3--|
B|----3--3-----3------v3-3---3----------|
G|----2----2-----2----v0---0------------|
D|----0------0-----0--v0----------------|
A|--------------------v2----------------|
E|--------------------v3----------------|


e|--2-------2------2--v3------------5--3-3--2-----|
B|--3--3-------2------v3--3---3--3----------------|
G|--2----2-------2----v0----0---------------------|
D|--0-------0------0--v0--------------------------|
A|--------------------v2--------------------------|
E|--------------------v3--------------------------|


e|--3--------5--3--3--2--v0-------0--2--0--2--------|
B|----3---3--------------v2-2--------------3-3------|
G|--0---0----------------v2---2------------2---2----|
D|-----------------------v2-----2-2--------0-----0--|
A|--------------------------------------------------|
E|--------------------------------------------------|

[Instrumental 2] x4

e|--v2------v2------2-----v0------v0------0-----0----|
B|--v3--2---v3--2------3--v2--2---v2--2-----2-----2--|
G|--v2----2-v2----2-------v2----2-v2----2-----2------|
D|--v0------v0------0-----v2------v2------2----------|
A|------------------------v0------v0-----------------|
E|---------------------------------------------------|


e|---v2------v2-----2----v3------v3-----3-----------|
B|---v3--3---v3-3-----3--v3--3---v3-3-----3---------|
G|---v4----4-v4---4------v0----0-v0---0-----0-------|
D|---v4------v4----------v0------v0-----------------|
A|---v2------v2----------v2------v2-----------------|
E|---v2------v2----------v3------v3-----------------|

I will worship you x7

e|------3s5---v3---------v2------2--v0--------------|
B|---3--------v3--3---3--v3--3------v2-2------------|
G|------------v0----0----v2----2----v2---2----------|
D|---0--------v0---------v0---------v2-----2--------|
A|------------v3------------------------------------|
E|------------v2------------------------------------|

e|------3s5---v3---------v2------2--v0--------------|
B|---3--------v3--3---3--v3--3------v2-2------------|
G|------------v0----0----v2----2----v2---2----------|
D|---0--------v0---------v0---------v2-----2--------|
A|------------v3------------------------------------|
E|------------v2------------------------------------|

e|------3s5---v3---------v2------2--v0--------------|
B|---3--------v3--3---3--v3--3------v2-2------------|
G|------------v0----0----v2----2----v2---2----------|
D|---0--------v0---------v0---------v2-----2--------|
A|------------v3------------------------------------|
E|------------v2------------------------------------|

e|------3s5---v3---------v2------2--v0--------------|
B|---3--------v3--3---3--v3--3------v2-2------------|
G|------------v0----0----v2----2----v2---2----------|
D|---0--------v0---------v0---------v2-----2--------|
A|------------v3------------------------------------|
E|------------v2------------------------------------|

e|------3s5---v3---------v2------2--v0--------------|
B|---3--------v3--3---3--v3--3------v2-2------------|
G|------------v0----0----v2----2----v2---2----------|
D|---0--------v0---------v0---------v2-----2--------|
A|------------v3------------------------------------|
E|------------v2------------------------------------|

e|------3s5---v3---------v2------2--v0--------------|
B|---3--------v3--3---3--v3--3------v2-2------------|
G|------------v0----0----v2----2----v2---2----------|
D|---0--------v0---------v0---------v2-----2--------|
A|------------v3------------------------------------|
E|------------v2------------------------------------|

e|------3s5---v3---------v2------2--v0--------------|
B|---3--------v3--3---3--v3--3------v2-2------------|
G|------------v0----0----v2----2----v2---2----------|
D|---0--------v0---------v0---------v2-----2--------|
A|------------v3------------------------------------|
E|------------v2------------------------------------|

Chorus

e|---7--5--5--3--2------2-----2--v3-------7-5-5-3----|
B|---------------3--3-----3------v3-3---3------------|
G|---------------2----2-----2----v0---0--------------|
D|---------------0------0-----0--v0------------------|
A|-------------------------------v2------------------|
E|-------------------------------v3------------------|


e|--2-------2------2--v3------------3s5--3--3--2----|
B|--3--2-------2------v3--3----3--3-----------------|
G|--2----2-------2----v0----0-----------------------|
D|--0-------0------0--v0----------------------------|
A|--------------------v2----------------------------|
E|--------------------v3----------------------------|


e|---3---------2s5--3--3--2--v0------0--0--2--0--v2--|
B|------3---3----------------v2--2---------------v3--|
G|---0----0------------------v2----2-------------v2--|
D|---------------------------v2------2-----------v0--|
A|---------------------------v0----------------------|
E|---------------------------------------------------|


I will worship you x2

e|------3s5---v3---------v2------2--v0--------------|
B|---3--------v3--3---3--v3--3------v2-2------------|
G|------------v0----0----v2----2----v2---2----------|
D|---0--------v0---------v0---------v2-----2--------|
A|------------v3------------------------------------|
E|------------v2------------------------------------|

e|------3s5---v3---------v2------2--v0--------------|
B|---3--------v3--3---3--v3--3------v2-2------------|
G|------------v0----0----v2----2----v2---2----------|
D|---0--------v0---------v0---------v2-----2--------|
A|------------v3------------------------------------|
E|------------v2------------------------------------|

Ending..

e|---v2---------------------------------------------|
B|---v3---------------------------------------------|
G|---v2---------------------------------------------|
D|---v0---------------------------------------------|
A|--------------------------------------------------|
E|--------------------------------------------------|


Thank you for reading my tab! I hope you enjoyed it.
God bless, I will make more soon.


Legend

v-Strumdown
x-Muted string
h-Hummer on

            
            
Suggest correction
Creating personal tab
Creating personal tab
You can edit any tab online and save it as your Personal.

You can edit, replace or remove any tab part or add personal notes – all changes will be seen only by you.

Personal tabs can be accessed anytime from any device, even offline.
Learn more »
Give kudos to tab author, rate the tab!
1 2 3 4 5
comments
print report bad tab
guest
You may want to rate the tab now too:
select rating
Wanna post a correction for this tab? Suggest correction