Oops, an error
Loading. Please wait.

With Us Tab

version 2
version 2

Whole song

1,501 views 3 this week
no commentswrite comment
1 2 3 4 5
accurate
x 4
add to favorites
launch autoscroll
font size
0
reset
how to read this tab
guitar tuner
Tab Pro tools
  • play this tab
  • loop segment
  • change instrument
  • show fretboard
  • metronome
×
Best way to learn
"With Us"
Autoscroll
slow
fast
+/-
esc
set tempo
stop
Contributor
Difficulty
Tabbed by: Dan Zamora
E-mail: dzamora8905@hotmail.com

Made this tab because I didn't see any good tabs for this song. The smaller things like
hammer-ons and pull-offs I still don't have an ear to pick it. But note wise this should
be 100%. Small amount of reverb throughout the song. Other effects can be added to your liking.

*I can hear Guitar 2 playing something else during the refrain but I'm having a hard
time making it out. If you can figure it out i'll add it to the tabs and give cred of
course. :)

REFRAIN (Guitar 1)
                          ~                 ~
e|-----------------14-14-------------15-15-14----------14-14-----------------------|
B|-x-x-x-/12-10-12-------10-12-10-12----------12-10-12-------10-/12-12-12-12-12-10-|
G|---------------------------------------------------------------------------------|
D|---------------------------------------------------------------------------------|
A|---------------------------------------------------------------------------------|
E|---------------------------------------------------------------------------------|

                    ~                 ~
e|-----------14-14-------------15-15-14----------14-14---------------------------|
B|-12-10-12--------10-12-10-12----------12-10-12-------10\-/12-12-12-12-12-12\---|
G|-------------------------------------------------------------------------------|
D|-------------------------------------------------------------------------------|
A|-------------------------------------------------------------------------------|
E|-------------------------------------------------------------------------------|

VERSE  Guitar 1 starts after Guitar 2 plays verse 2 times
(Guitar 2)
e|------------------------------------------|
B|------------------------------------------|
G|----------------------7-------------------|   x4
D|--9---------5---------7-(x8)----7---------|
A|--9-(x8)----5-(x8)----5---------7-(x8)----|
E|--7---------3-------------------5---------|

(Guitar 1)
e|------------------------------------------------------------------------|
B|---------10-10-10-8-8-------8-8-8-7-----7-7-7-5-5-----------------------|
G|-----7-7----------------------------7-7---------------6-6-6-7-----------|
D|-9-9------------------5-5-5-----------------------7-7-------------------|
A|------------------------------------------------------------------------|
E|------------------------------------------------------------------------|

e|------------------------------------------------------------------------|
B|---------10-10-10-8-8-------8-8-8-7---------7-7-5-5-----5-5-----5-5-----|
G|-----7-7----------------------------6-6-7-7---------7-7-----7-7---------|
D|-9-9------------------5-5-5---------------------------------------------|
A|------------------------------------------------------------------------|
E|------------------------------------------------------------------------|

CHORUS (Guitar 2)
   D           G           Bm           G
e|------------------------------------------|
B|------------------------------------------|
G|-2-----------0------------4-----------0---|   x2
D|-0-----------0------------4-----------0---|
A|--------------------------2---------------|
E|------------------------------------------|

REFRAIN (Guitar 1)
                          ~                 ~
e|-----------14-14-------------15-15-14----------14-14-----------------------|
B|-/12-10-12-------10-12-10-12----------12-10-12-------10-/12-12-12-12-12-10-|
G|---------------------------------------------------------------------------|
D|---------------------------------------------------------------------------|
A|---------------------------------------------------------------------------|
E|---------------------------------------------------------------------------|

                    ~                 ~
e|-----------14-14-------------15-15-14----------14-14-------------------------|
B|-12-10-12--------10-12-10-12----------12-10-12-------10\-/12-12-12-12-12-12\-|
G|-----------------------------------------------------------------------------|
D|-----------------------------------------------------------------------------|
A|-----------------------------------------------------------------------------|
E|-----------------------------------------------------------------------------|

VERSE Guitar 1 starts after Guitar 2 plays verse 2 times
(Guitar 2)
e|------------------------------------------|
B|------------------------------------------|
G|----------------------7-------------------|   x4
D|--9---------5---------7-(x8)----7---------|
A|--9-(x8)----5-(x8)----5---------7-(x8)----|
E|--7---------3-------------------5---------|

(Guitar 1)
e|------------------------------------------------------------------------|
B|---------10-10-10-8-8-------8-8-8-7-----7-7-7-5-5-----------------------|
G|-----7-7----------------------------7-7---------------6-6-6-7-----------|
D|-9-9------------------5-5-5-----------------------7-7-------------------|
A|------------------------------------------------------------------------|
E|------------------------------------------------------------------------|

e|------------------------------------------------------------------------|
B|---------10-10-10-8-8-------8-8-8-7---------7-7-5-5-----5-5-----5-5-----|
G|-----7-7----------------------------6-6-7-7---------7-7-----7-7---------|
D|-9-9------------------5-5-5---------------------------------------------|
A|------------------------------------------------------------------------|
E|------------------------------------------------------------------------|

CHORUS (Guitar 2)
   D           G           Bm           G
e|------------------------------------------|
B|------------------------------------------|
G|-2-----------0------------4-----------0---|   x2
D|-0-----------0------------4-----------0---|
A|--------------------------2---------------|
E|------------------------------------------|

BRIDGE First Guitar 1 and then 2
(Guitar 1)
e|-7-(x12)-9-9-9-9-10-10-10-10---------------------------------------------------------|
B|-----------------------------8-(x12)-7-(x16)-9-(x16)-12-(x12)-14-14-14-14-15-15-15-15|
G|-------------------------------------------------------------------------------------|
D|-------------------------------------------------------------------------------------|
A|-------------------------------------------------------------------------------------|
E|-------------------------------------------------------------------------------------|

-15-(x12)-14-(x16)-17-(x15)-15-|
-------------------------------|
-------------------------------|
-------------------------------|
-------------------------------|
-------------------------------|

(Guitar 2) With some delay
e|----7----7-----10-----9----------------|
B|---7----7----10-----10-----------------|
G|-7----7----7------9--------------------|   x2
D|---------------------------------------|
A|---------------------------------------|
E|---------------------------------------|

After this both guitars play their respective bridge parts together.

CHORUS Both guitars together
Guitar 2
   D           G           Bm           G
e|------------------------------------------|
B|------------------------------------------|
G|-2-----------0------------4-----------0---|   x2
D|-0-----------0------------4-----------0---|
A|--------------------------2---------------|
E|------------------------------------------|

Guitar 1
e|-10-(x28)--9-(x4)-------------------------|
B|------------------------------------------|
G|------------------------------------------|   x4
D|------------------------------------------|
A|------------------------------------------|
E|------------------------------------------|

REFRAIN
Guitar 1
                          ~                 ~
e|-----------14-14-------------15-15-14----------14-14-----------------------|
B|-/12-10-12-------10-12-10-12----------12-10-12-------10-/12-12-12-12-12-10-|
G|---------------------------------------------------------------------------|
D|---------------------------------------------------------------------------|
A|---------------------------------------------------------------------------|
E|---------------------------------------------------------------------------|

                    ~                 ~
e|-----------14-14-------------15-15-14----------14-14-------------------------|
B|-12-10-12--------10-12-10-12----------12-10-12-------10\-/12-12-12-12-12-12\-|
G|-----------------------------------------------------------------------------|
D|-----------------------------------------------------------------------------|
A|-----------------------------------------------------------------------------|
E|-----------------------------------------------------------------------------|



************************************

| /   slide up
| \   slide down
| h   hammer-on
| p   pull-off
| ~   vibrato
| +   harmonic
| x   Mute note
| b   Bend
| pb  Pre-bend
| br  Bend release
| pbr Pre-bend release
| brb Bend release bend

************************************
comments
print report bad tab
I want to post or [tab]
guest
You may want to rate the tab now too:
select rating
Please do not post tabs as comments. Select "correction" instead!