Oops, an error
Loading. Please wait.

Mic Felon bass

551 views 6 this week
no commentswrite comment
1 2 3 4 5
3 more votes to show rating
add to favorites
×
Save as Personal and add changes to this tab that will be seen only by you. Learn more ›
×
You can save this tab as Personal to edit and correct it or add notes. All changes will be seen only by you. Learn more »
launch autoscroll
font size
0
reset
guitar tuner
edit
Autoscroll
slow
fast
+/-
esc
set tempo
stop
Author
Difficulty
Mic Felon - Hilltop Hoods

i saw them perform this live at BDO, i was in the front row, they had a bassist playing 
and i watched him and this is how he does it:

Like most bass songs this is the whole song:

Main Riff:
G|------------------------------------------------------------------------|
D|----------3-------------------------------------------------------------|
A|------3h5----5----------------------------------------------------------|
E|--0-0-------------------------------------------------------------------|


Bridge:
G|-------------------------------------------------------------------------|
D|-------------------------------------------------------------------------|
A|-------------------------------------------------------------------------|
E|---0-0-0-0-0-0-0-0-------------------------------------------------------|

Then back to main riff

            
            
Suggest correction
Creating personal tab
Creating personal tab
You can edit any tab online and save it as your Personal.

You can edit, replace or remove any tab part or add personal notes – all changes will be seen only by you.

Personal tabs can be accessed anytime from any device, even offline.
Learn more »
Give kudos to tab author, rate the tab!
1 2 3 4 5
comments
print report bad tab
guest
You may want to rate the tab now too:
select rating
Wanna post a correction for this tab? Suggest correction