Oops, an error
Loading. Please wait.

All Lips Go Blue Tab

version 1
version 1

Whole song

Interactive

by HIM
3,100 views 9 this week
no commentswrite comment
1 2 3 4 5
accurate
x 5
add to favorites
launch autoscroll
font size
0
reset
how to read this tab
guitar tuner
Autoscroll
slow
fast
+/-
esc
set tempo
stop
Help us to improve Ultimate-Guitar.com Take our survey!
×
Author
Difficulty
intermediate
-------------------------------------------------------------------------------
                             All Lips Go Blue - HIM
-------------------------------------------------------------------------------
Tabbed by: TheMatt1234             

Tuning:Standard

This is my first tab, i hope it goes down well with everyone.
I felt the others on here didn't quite sound right. 
Intro:
e|--------------------------------------------------------------------------------|
B|--------------------------------------------------------------------------------|
G|--------------------------------------------------------------------------------|
D|--------------------------------------------------------------------------------|
A|--2-2~--2-2~--------------------------2-2~--2-2~--------------------------------|
E|--2-2~--2-2~--10p9-5--10p9-5-10p9-5---2-2~--2-2~--10p9-10/12--10p9-10/12-10p9-5-|

e|--------------------------------------------------------------------------------|
B|--------------------------------------------------------------------------------|
G|--------------------------------------------------------------------------------|
D|--------------------------------------------------------------------------------|
A|--2-2~--2-2~--------------------------2-2~--2-2~--------------------------2-2-2-|
E|--2-2~--2-2~--10p9-5--10p9-5-10p9-5---2-2~--2-2~--10p9-10/12--10p9-10/12--2-2-2-|
                                                                            x x x

Some people will say play the way below, which is fine, but if you want to be heavy
and like Linde, play the way above.
e|---------------------------------------------------------------------------|
B|---------------------------------------------------------------------------|
G|---------------------------------------------------------------------------|
D|---------------------------------------------------------------------------|
A|-5p4---5p4----5p4------5p4-5/7--5p4-5/7------------------------------------|
E|-----5-----5------5--------------------------------------------------------|

Verse:
The chords used in the are: Bm, A, D, Em, F#m, Em, A. 
However Ville Uses a Capo on the 4th Fret (acoustic guitar only)
for the video, so we can refer to the chords as: Gm, F, Bb, Cm, Dm, Cm, F
Heres a Tab for how i think it is played
e|-7-7-777--5-5-555------------------------------------------5-5-555----------|
B|-7-7-777--5-5-555---7-7-777--7h8-88--9h10-10-10---8-8-888--5-5-555----------|
G|-7-7-777--6-6-666---7-7-777--7h9-99--9h11-11-11---9-9-999--6-6-666----------|
D|-9-9-999--7-7-777---7-7-777--7h9-99--9h11-11-11---9-9-999--7-7-777----------|
A|-9-9-999--7-7-777---5-5-555--7h--77--9h---9--9----7-7-777--7-7-777----------|
E|-7-7-777--5-5-555------------------------------------------5-5-555----------|

Electric guitar Comes in
e|---------------------------------------------------------------------------|
B|---------------------------------------------------------------------------|
G|---------------------------------------------------------------------------|
D|---------------------------------------------------------------------------|
A|--2-2--4-4-----------------------------------------------------------------|
E|--2-2--2-2/6~~~------------------------------------------------------------|

Palm Muted Part
e|----------------------------------------------------------------------------|
B|----------------------------------------------------------------------------|
G|----------------------------------------------------------------------------|
D|----------------------------------------------------------------------------|
A|-2-2-2-2-2-2-2-2--7-7-7-7-7-7-7-7--5-5-5-5-5-5-5-5--2-2-2-2-4-4-4-4---------|
E|-2-2-2-2-2-2-2-2--5-5-5-5-5-5-5-5--5-5-5-5-5-5-5-5--0-0-0-0-2-2-2-2---------|
   x x x x x x x x  x x x x x x x x  x x x x x x x x  x x x x x x x x
e|----------------------------------------------------------------------------|
B|----------------------------------------------------------------------------|
G|-------------------------------------7-7-7-7--7-7---------------------------|
D|----------------------------------------------------7-7-7-------------------|
A|-5-5-5-5-5-5-5-5--7-7-7-7-7-7-7-7----5-5-5-5--5-5----------7/9\7------------|
E|-3-3-3-3-3-3-3-3--5-5-5-5-5-5-5-5-------------------5-5-5--5/7\5------------|
   x x x x x x x x  x x x x x x x x

Chorus  (My Rhythm isn't completely correct, but after a few listens to the song
it does come naturally within the playing)
e|----------------------------------------------------------------------------|
B|----------------------------------------------------------------------------|
G|----------------------------------------------------------------------------|
D|----------------------------------------------------------------------------|
A|-2-2-2222--5-5-5555--5-5-5555--4-4-4444--2-2-2222--5-5-5555-----------------|
E|-2-2-2222--3-3-3333--5-5-5555--2-2-2222--2-2-2222--3-3-3333-----------------|

This Bit i think is very SLIGHTLY palm muted, more so on the D string.
e|----------------------------------------------------------------------------|
B|----------------------------------------------------------------------------|
G|---7-7------7-7------6-6-----6-6--------------------------------------------|
D|-------7-7------7-7------7-7-----7-7----------------------------------------|
A|----------------------------------------------------------------------------|
E|----------------------------------------------------------------------------|

Back to intro riff Partly:
e|--------------------------------------------------------------------------------|
B|--------------------------------------------------------------------------------|
G|--------------------------------------------------------------------------------|
D|--------------------------------------------------------------------------------|
A|--2-2~--2-2~--------------------------2-2~--2-2~--------------------------2-2---|
E|--2-2~--2-2~--10p9-5--10p9-5-10p9-5---2-2~--2-2~--10p9-10/12--10p9-10/12--2-2---|
                                                                            x x
Verse 2
e|----------------------------------------------------------------------------|
B|----------------------------------------------------------------------------|
G|----------------------------------------------------------------------------|
D|----------------------------------------------------------------------------|
A|-2-2-2-2-2-2-2-2--7-7-7-7-7-7-7-7--5-5-5-5-5-5-5-5--2-2-2-2-4-4-4-4---------|
E|-2-2-2-2-2-2-2-2--5-5-5-5-5-5-5-5--5-5-5-5-5-5-5-5--0-0-0-0-2-2-2-2---------|
   x x x x x x x x  x x x x x x x x  x x x x x x x x  x x x x x x x x 

e|----------------------------------------------------------------------------|
B|----------------------------------------------------------------------------|
G|----------------------------------------------------------------------------|
D|----------------------------------------------------------------------------|
A|-5-5-5-5-5-5-5-5--7-7-7-7-7-7-7-7---5-5--7-7--------------------------------|
E|-3-3-3-3-3-3-3-3--5-5-5-5-5-5-5-5---5-5--5-5--5-7-5-------------------------|
   x x x x x x x x  x x x x x x x x  
Chorus 2
e|----------------------------------------------------------------------------|
B|----------------------------------------------------------------------------|
G|----------------------------------------------------------------------------|
D|----------------------------------------------------------------------------|
A|-2-2-2222--5-5-5555--5-5-5555--4-4-4444--2-2-2222--5-5-5555-----------------|
E|-2-2-2222--3-3-3333--5-5-5555--2-2-2222--2-2-2222--3-3-3333-----------------|

e|----------------------------------------------------------------------------|
B|----------------------------------------------------------------------------|
G|---7-7------7-7------6-6-----6-6--------------------------------------------|
D|-------7-7------7-7------7-7-----7-7----------------------------------------|
A|----------------------------------------------------------------------------|
E|----------------------------------------------------------------------------|

e|--------------------------------------------------------------------------------|
B|--------------------------------------------------------------------------------|
G|--------------------------------------------------------------------------------|
D|--------------------------------------------------------------------------------|
A|-2-2-2222--5-5-5555--5-5-5555--4-4-4444--2-2-2222--5-5-5555--5-5-5555--4-4-4444-|
E|-2-2-2222--3-3-3333--5-5-5555--2-2-2222--2-2-2222--3-3-3333--5-5-5555--2-2-2222-|

e|----------------------------------------------------------------------------------|
B|----------------------------------------------------------------------------------|
G|---7-7------7-7------6-6-----6-6------7-7-----7-7-----6-6-----6-6-----------------|
D|-------7-7------7-7------7-7-----7-7------7-7-----7-7-----7-7-----7-7-------------|
A|-------------------------------------------------------------------------2-2--2-2-|
E|-------------------------------------------------------------------------0-0--2-2-|
                                                                                x x
Pre-solo
e|----------------------------------------------------------------------------|
B|----------------------------------------------------------------------------|
G|----------------------------------------------------------------------------|
D|----------------------------------------------------------------------------|
A|----9------------------------9----------------------------------------------|
E|-/7---7-10~--0-5-7-4~-0~--/7---7-10-5--4h5p4h5p4h5p4h5p4h5p4----------------|

Solo Complete, if it doesn't sound right at first, try to slow down the
 song, there are some notes that are a big longer than others. 
e|---------------------------------------------------------------------------|
B|-7--7--------------------------------------------7h9p7---7h9p7------9b-----|
G|-9b-9b--9*br-p7-9~--6-6br6br6br------7h9p7---7h9-------9-------9-----------|
D|--------------------------------7/9--------9-------------------------------|
A|---------------------------------------------------------------------------|
E|---------------------------------------------------------------------------|

                        |  3  |
e|-------------7----------------------------7--------------------------------|
B|--9brp7h9h10---9h10---9h10p9p7-----7h9h10---9h10--7h9h10-9h10-9*b---9br----|
G|--------------------------------10-----------------------------------------|
D|---------------------------------------------------------------------------|
A|---------------------------------------------------------------------------|
E|---------------------------------------------------------------------------|

e|---------------------------------------------------------------------------|
B|-7---7h9p7----7------------------------------------------------------------|
G|---9-------9----9-7---7h9p7---6h7p6-------7h9p7---7h9-9brp7h9p7------------|
D|--------------------9-------9-------7--/9-------9---------------9p7--------|
A|--------------------------------------------------------------------9\7----|
E|---------------------------------------------------------------------------|

e|---------------------------------------------------------------------------|
B|---------------------------------------------------------------------------|
G|---------------------------------------------------------------------------|
D|---------------------------------------------------------------------------|
A|-7p5-7b-7-5-7~-------------------------------------------------------------|
E|---------------------------------------------------------------------------|


Even Faster (If its difficult to read, the notes on the e string are: 7-9-10,9-10-12,10-12-14)

e|-791097--791097--791097--791097--91012109--91012109--91012109--91012109----|
B|-------10------10------10------10--------12--------12--------12--------12--|
G|---------------------------------------------------------------------------|
D|---------------------------------------------------------------------------|
A|---------------------------------------------------------------------------|
E|---------------------------------------------------------------------------|

e|-1012141210--1012141210--1012141210--1012141210----16*b----------------------|
B|-----------14----------14----------14----------14--------------------------|
G|---------------------------------------------------------------------------|
D|---------------------------------------------------------------------------|
A|---------------------------------------------------------------------------|
E|---------------------------------------------------------------------------|

However beneath the solo you can play this instead of keeping silent!
e|------------------------------------------------------------------------------|
B|------------------------------------------------------------------------------|
G|------------------------------------------------------------------------------|
D|------------------------------------------------------------------------------|
A|----9------------------------9----------------/9-9-9-9-9-9-9-/9-9-9-9-9-9-9-9-|
E|-/7---7-10~--0-5-7-4~-0~--/7---7-10-5--4~-3~----------------------------------|

e|---------------------------------------------------------------------------|
B|---------------------------------------------------------------------------|
G|---------------------------------------------------------------------------|
D|---------------------------------------------------------------------------|
A|-/9-9-9-9-9-9-9-/9~-7/9\5--------------------------------------------------|
E|--------------------5/7\5--------------------------------------------------|

Villes Acoustic chorus bit

Linde comes in with a pick slide
e|---------------------------------------------------------------------------|
B|---------------------------------------------------------------------------|
G|---------------------------------------------------------------------------|
D|---------------------------------------------------------------------------|
A|X\\\\\\\\\\\\\\\\\\\\\\\---------------------------------------------------|
E|X\\\\\\\\\\\\\\\\\\\\\\\---------------------------------------------------|

e|---------------------------------------------------------------------------|
B|---------------------------------------------------------------------------|
G|--------------------7-7-----7-7------7-7----7-7----------------------------|
D|------------------------7-7-----7-7-----6-6-----6-6------------------------|
A|-2-2-2222-5-5-5555---------------------------------------------------------|
E|-2-2-2222-3-3-3333---------------------------------------------------------|

e|--------------------------------------------------------------------------------|
B|--------------------------------------------------------------------------------|
G|--------------------------------------------------------------------------------|
D|--------------------------------------------------------------------------------|
A|-2-2-2222--5-5-5555--5-5-5555--4-4-4444--2-2-2222--5-5-5555--5-5-5555--4-4-4444-|
E|-2-2-2222--3-3-3333--5-5-5555--2-2-2222--2-2-2222--3-3-3333--5-5-5555--2-2-2222-|

e|--------------------------------------------------------------------------------------------|
B|--------------------------------------------------------------------------------------------|
G|---11-11-------11-11--------9-9-------9-9--------11-11------11-11------9-9-------9-9--------|
D|---------12-12------12-12-------12-12-----12-12-------12-12------12-12-----12-12-----12-12--|
A|--------------------------------------------------------------------------------------------|
E|--------------------------------------------------------------------------------------------|


e|--------------------------------------------------------------------------------------------|
B|--------------------------------------------------------------------------------------------|
G|---11-11-------11-11--------9-9-------9-9--------11-11------11-11------9-9-------9-9--------|
D|---------12-12------12-12-------12-12-----12-12-------12-12------12-12-----12-12-----12-12--|
A|--------------------------------------------------------------------------------------------|
E|--------------------------------------------------------------------------------------------|

Ending
e|---------------------------------------------------------------------------|
B|---------------------------------------------------------------------------|
G|---------------------------------------------------------------------------|
D|---------------------------------------------------------------------------|
A|-2-2~--2-2~--2-2~--2~\-----------------------------------------------------|
E|-2-2~--2-2~--2-2~--2~\-----------------------------------------------------|


************************************

| /   slide up
| \   slide down
| h   hammer-on
| p   pull-off
| ~   vibrato
| +   harmonic
| x   Mute note
| b   Bend
| pb  Pre-bend
| br  Bend release
| pbr Pre-bend release
| brb Bend release bend

************************************
Suggest correction
What's this?
You can suggest a correction to this tab. Community and Mods will review your correction and vote to approve or reject it.
comments
print report bad tab
guest
You may want to rate the tab now too:
select rating
Please do not post tabs as comments. Select "correction" instead!