Oops, an error
Loading. Please wait.

Beyond Redemption tab

version 2
version 2

Whole song

Interactive

by HIM
2,059 views 1 this week
no commentswrite comment
1 2 3 4 5
x 6
add to favorites
×
Save as Personal and add changes to this tab that will be seen only by you. Learn more ›
×
You can save this tab as Personal to edit and correct it or add notes. All changes will be seen only by you. Learn more »
launch autoscroll
font size
0
reset
how to read this tab
guitar tuner
edit
Autoscroll
slow
fast
+/-
esc
set tempo
stop
Author
HIM
BEYOND REDEMPTION
Tune down 1/2 step
INTRO on piano

-------2-|-------5-3-2-
---3-----|---3---------
-4---4---|-4---4-------
---------|-------------
---------|-------------
---------|-------------

Guitar 1

---------|-------------|---------|----------------4-
---------|-------------|---------|----------------5-
-------1-|-------4-2-1-|-------1-|---------1------6-
---2-----|---2---------|---2-----|---2---4---2-1--6-
-4---4---|-4---4-------|-4---4---|-4---4----------4-
---------|-------------|---------|------------------

Guitar 2

-----------------------------------------------------------------
-----------------------------------------------------------------
-6-6-6-6-6-6-6-6-------------------------------------------------
-6-6-6-6-6-6-6-6-2-2-2-2-2-2-2-2-4-4-4-4-4-4-4-4-7-7-7-7-9-9-9-9-
-4-4-4-4-4-4-4-4-2-2-2-2-2-2-2-2-4-4-4-4-4-4-4-4-7-7-7-7-9-9-9-9-
-----------------0-0-0-0-0-0-0-0-2-2-2-2-2-2-2-2-5-5-5-5-7-7-7-7-
 ------------------------------P.M------------------------------

------------------------------------------------------------------4-
------------------------------------------------------------------5-
-6-6-6-6-6-6-6-6--------------------------------------------------6-
-6-6-6-6-6-6-6-6-2-2-2-2-2-2-2-2-4-4-4-4-4-4-4-4-7-7-7-7-9-9-9-9--6-
-4-4-4-4-4-4-4-4-2-2-2-2-2-2-2-2-4-4-4-4-4-4-4-4-7-7-7-7-9-9-9-9--4-
-----------------0-0-0-0-0-0-0-0-2-2-2-2-2-2-2-2-5-5-5-5-7-7-7-7----
 ------------------------------P.M------------------------------

Oh I see your scars       I know where they from         So sensually carved
------------              ------------                   ------------
------------              ------------                   ------------
------------              ------------                   ------------
------------              ------------                   ------------
--------2-4-              --------7-4-                   --------2-4-
-5--7\4-----              -5--7\4-----                   -5--7\4-----

and bleeding until you're dead and gone
       ----------------------------
       ----------------------------
       ----------------------------
       ----------------------------
       ----------------------------
       -2--------------4----5----7-

I've seen it all before      beauty and splendour torn       It's when heaven
------------                   ------------                     ------------
------------                   ------------                     ------------
------------                   ------------                     ------------
------------                   ------------                     ------------
--------2-4-                   --------7-4-                     --------2-4-
-5--7\4-----                   -5--7\4-----                     -5--7\4-----
 
turns to black and hell to white
---------------------
---------------------
---------------------
---------------------
---------------------
-2--------------4--5-

Right's so wrong and wrong's so right           Now
-----------------------                         ---
-----------------------                         ---
-----------------------                         ---
-----------------------                         ---
-----------------------                         ---
-2----------------4--5-                         -7-

CHORUS

-4-4--------------------|-4-4--------------------
-5-5--------------------|-5-5--------------------
-6-6--------------------|-6-6--------------------
-6-6--6-7-7-x-7/9-9-9-2-|-6-6--6-7-7-x-7/9-9-9-2-
-4-4--6-7-7-x-7/9-9-9-2-|-4-4--6-7-7-x-7/9-9-9-2-
------4-5-5-x-5/7-7-7-0-|------4-5-5-x-5/7-7-7-0-

--------------------------------
--------------------------------
-6------------------------------
-6----6----7--x-x-x-9-9-9-2-2-2-
-4----6----7--x-x-x-9-9-9-2-2-2-
------4----5--x-x-x-7-7-7-0-0-0-

Guitar 1

---------|-------------|---------|----------------4-
---------|-------------|---------|----------------5-
-------1-|-------4-2-1-|-------1-|---------1------6-
---2-----|---2---------|---2-----|---2---4---2-1--6-
-4---4---|-4---4-------|-4---4---|-4---4----------4-
---------|-------------|---------|------------------

Guitar 2

-----------------------------------------------------------------
-----------------------------------------------------------------
-6-6-6-6-6-6-6-6-------------------------------------------------
-6-6-6-6-6-6-6-6-2-2-2-2-2-2-2-2-4-4-4-4-4-4-4-4-7-7-7-7-9-9-9-9-
-4-4-4-4-4-4-4-4-2-2-2-2-2-2-2-2-4-4-4-4-4-4-4-4-7-7-7-7-9-9-9-9-
-----------------0-0-0-0-0-0-0-0-2-2-2-2-2-2-2-2-5-5-5-5-7-7-7-7-
 ------------------------------P.M------------------------------

------------------------------------------------------------------4-
------------------------------------------------------------------5-
-6-6-6-6-6-6-6-6--------------------------------------------------6-
-6-6-6-6-6-6-6-6-2-2-2-2-2-2-2-2-4-4-4-4-4-4-4-4-7-7-7-7-9-9-9-9--6-
-4-4-4-4-4-4-4-4-2-2-2-2-2-2-2-2-4-4-4-4-4-4-4-4-7-7-7-7-9-9-9-9--4-
-----------------0-0-0-0-0-0-0-0-2-2-2-2-2-2-2-2-5-5-5-5-7-7-7-7----
 ------------------------------P.M------------------------------

Oh I see you crawl        you can barely walk         And arms wide open
------------              ------------               ------------
------------              ------------               ------------
------------              ------------               ------------
------------              ------------               ------------
--------2-4-              --------7-4-               --------2-4-
-5--7\4-----              -5--7\4-----               -5--7\4-----

you keep on  begging for more
--------------------
--------------------
--------------------
--------------------
--------------------
-2----------4-5---7-

I've been there before       knocking on the same door       It's when hate
------------                 ------------                    ------------
------------                 ------------                    ------------
------------                 ------------                    ------------
------------                 ------------                    ------------
--------2-4-                 --------7-4-                    --------2-4-
-5--7\4-----                 -5--7\4-----                    -5--7\4-----

turns to love and love to hate
---------------------
---------------------
---------------------
---------------------
---------------------
-2--------------4--5-

Faith to doubt and doubt to faith           Now
----------------------                      ---
----------------------                      ---
----------------------                      ---
----------------------                      ---
----------------------                      ---
-2---------------4--5-                      -7-

CHORUS

-4-4--------------------|-4-4--------------------
-5-5--------------------|-5-5--------------------
-6-6--------------------|-6-6--------------------
-6-6--6-7-7-x-7/9-9-9-2-|-6-6--6-7-7-x-7/9-9-9-2-
-4-4--6-7-7-x-7/9-9-9-2-|-4-4--6-7-7-x-7/9-9-9-2-
------4-5-5-x-5/7-7-7-0-|------4-5-5-x-5/7-7-7-0-

--------------------------------
--------------------------------
-6------------------------------
-6----6----7--x-x-x-9-9-9-2-2-2-
-4----6----7--x-x-x-9-9-9-2-2-2-
------4----5--x-x-x-7-7-7-0-0-0-

-----------------------------------------------------------------------------
-----------------------------------------------------------------------------
9-9-9-9-9-9-9-11-11-11-11-11-11-11-13-13-13-13-13-13-13-14-14-14-14-14-14-14-
x-x-x-x-x-x-x--x--x--x--x--x--x--x--x--x--x--x--x--x--x--x--x--x--x--x--x--x-
7-7-7-7-7-7-7--9--9--9--9--9--9--9-11-11-11-11-11-11-11-12-12-12-12-12-12-12-
-----------------------------------------------------------------------------

-----------------------------------------------------------------------------
-----------------------------------------------------------------------------
9-9-9-9-9-9-9-11-11-11-11-11-11-11-13-13-13-13-13-13-13-14-14-14-14-14-14-14-
x-x-x-x-x-x-x--x--x--x--x--x--x--x--x--x--x--x--x--x--x--x--x--x--x--x--x--x-
7-7-7-7-7-7-7--9--9--9--9--9--9--9-11-11-11-11-11-11-11-12-12-12-12-12-12-12-
-----------------------------------------------------------------------------

-----------------------------------------------------------------------------
-----------------------------------------------------------------------------
9-9-9-9-9-9-9-11-11-11-11-11-11-11-13-13-13-13-13-13-13-14-14-14-14-14-14-14-
x-x-x-x-x-x-x--x--x--x--x--x--x--x--x--x--x--x--x--x--x--x--x--x--x--x--x--x-
7-7-7-7-7-7-7--9--9--9--9--9--9--9-11-11-11-11-11-11-11-12-12-12-12-12-12-12-
-----------------------------------------------------------------------------

Guitar 1

---------------------------------------------------------------------------
---------------------------------------------------------------------------
-13-13-13-13--13-13-13-11-11-11-11--11-11-11-9-9-9-9--9-9-9-8-8-8-8--8-8-8-
--x--x--x--x---x--x--x--x--x--x--x---x--x--x-x-x-x-x--x-x-x-x-x-x-x--x-x-x-
-11-11-11-11--11-11-11--9--9--9--9---9--9--9-7-7-7-7--7-7-7-6-6-6-6--6-6-6-
---------------------------------------------------------------------------

Guitar 2

------------------------------------------
------------------------------------------
13-13-13-13-13-13-13-14-14-14-14-14-14-14-
-x--x--x--x--x--x--x--x--x--x--x--x--x--x-
11-11-11-11-11-11-11-12-12-12-12-12-12-12-
------------------------------------------

------------------------------------------
------------------------------------------
15-15-15-15-15-15-15-16-16-16-16-16-16-16-
-x--x--x--x--x--x--x--x--x--x--x--x--x--x-
13-13-13-13-13-13-13-14-14-14-14-14-14-14-
------------------------------------------

SOLO

-------------------------7---------------------------------------------------
9-9-9-9-9-9-9-9-9-7--7/9--9p7---7-7--------------------------7/9----9-9-12---
-------------------9----------9-----6-6h9-8-6-9-8b-6-8b----9---------------9-
--------------------------------------------------------11-------11----------
-----------------------------------------------------------------------------
-----------------------------------------------------------------------------

--------------9------------------------12-12-12-12-12-12\9---7---7-7/9-
-----------12----12----14----14-14/17----------------------9---9-------
------9-11----------13----13-------------------------------------------
-9-11------------------------------------------------------------------
-----------------------------------------------------------------------
-----------------------------------------------------------------------

-9-12-12/16-14-12-14-12-11-12-11-9----9-9/12-9----9----------------------
-----------------------------------12----------12---9-7---7h9-7-9b-7-----
--------------------------------------------------------9------------9-6-
-------------------------------------------------------------------------
-------------------------------------------------------------------------
-------------------------------------------------------------------------

Feel it...
-4---5---4---5---4---4---5-
-5---5---5---5---5---4---5-
-6---6---6---6---6---4---6-
-6---7---6---7---6---6---7-
-4---7---4---7---4---6---7-
-----5-------5-------4---5-

CHORUS

-4-4--------------------|-4-4--------------------
-5-5--------------------|-5-5--------------------
-6-6--------------------|-6-6--------------------
-6-6--6-7-7-x-7/9-9-9-2-|-6-6--6-7-7-x-7/9-9-9-2-
-4-4--6-7-7-x-7/9-9-9-2-|-4-4--6-7-7-x-7/9-9-9-2-
------4-5-5-x-5/7-7-7-0-|------4-5-5-x-5/7-7-7-0-

--------------------------------
--------------------------------
-6------------------------------
-6----6----7--x-x-x-9-9-9-2-2-2-
-4----6----7--x-x-x-9-9-9-2-2-2-
------4----5--x-x-x-7-7-7-0-0-0-

Guitar 1

---------|-------------|---------|----------------4-
---------|-------------|---------|----------------5-
-------1-|-------4-2-1-|-------1-|---------1------6-
---2-----|---2---------|---2-----|---2---4---2-1--6-
-4---4---|-4---4-------|-4---4---|-4---4----------4-
---------|-------------|---------|------------------

Guitar 2

-----------------------------------------------------------------
-----------------------------------------------------------------
-6-6-6-6-6-6-6-6-------------------------------------------------
-6-6-6-6-6-6-6-6-2-2-2-2-2-2-2-2-4-4-4-4-4-4-4-4-7-7-7-7-9-9-9-9-
-4-4-4-4-4-4-4-4-2-2-2-2-2-2-2-2-4-4-4-4-4-4-4-4-7-7-7-7-9-9-9-9-
-----------------0-0-0-0-0-0-0-0-2-2-2-2-2-2-2-2-5-5-5-5-7-7-7-7-
 ------------------------------P.M-------------------------------

------------------------------------------------------------------4-
------------------------------------------------------------------5-
-6-6-6-6-6-6-6-6--------------------------------------------------6-
-6-6-6-6-6-6-6-6-2-2-2-2-2-2-2-2-4-4-4-4-4-4-4-4-7-7-7-7-9-9-9-9--6-
-4-4-4-4-4-4-4-4-2-2-2-2-2-2-2-2-4-4-4-4-4-4-4-4-7-7-7-7-9-9-9-9--4-
-----------------0-0-0-0-0-0-0-0-2-2-2-2-2-2-2-2-5-5-5-5-7-7-7-7----
 ------------------------------P.M----------------------------------

            
            
Suggest correction
Creating personal tab
Creating personal tab
You can edit any tab online and save it as your Personal.

You can edit, replace or remove any tab part or add personal notes – all changes will be seen only by you.

Personal tabs can be accessed anytime from any device, even offline.
Learn more »
comments
print report bad tab
guest
You may want to rate the tab now too:
select rating
Wanna post a correction for this tab? Suggest correction