Oops, an error
Loading. Please wait.

Beyond Redemption Bass Tab

version 4
version 4

Whole song

Interactive

by HIM
278 views 1 this week
1 commentread comment
1 2 3 4 5
3 more votes to show rating
add to favorites
launch autoscroll
font size
0
reset
guitar tuner
Autoscroll
slow
fast
+/-
esc
set tempo
stop
Help us to improve Ultimate-Guitar.com Take our survey!
×
Author
Difficulty
Tuning
novice
B E A D F# B
HIM  - Beyond Redemption

Bass Tab by Jaysif

Tuning: BEAD

Disclaimer: This tab is not official it was written by me and sounds ok when played 
to the song, it may not be what Mige actually plays but hey it’s a bit of fun J. It’s not 
hard to pick up, just listen to the song for accurate timings :)

Legend:
~ = Let ring.
v = Vibrato.
/ = Slide up.
\ = Slide down.
h = Hammer on.
p = Pull off.
b = Bend

Intro (00:08)
D)----------------------------------------|
A)-33333333-66666666----------------------|
E)----------------------------4444-6666---|  x3
B)-------------------66666666-------------|

D)-----------------------------------------|
A)33333333-66666666------------------------|
E)----------------------------4444-6666-8~-|
B)-------------------66666666--------------|

Verse 1 (00:24)
D)------------------------1----|
A)----1----1-3~-------1-----3~-|
E)-4----3----------4----3------|
B)-----------------------------|

D)---------------------------------------------1-----|
A)----1----1-3~------------1----1-3~------1------3~--|
E)-4----3--------1-34-6—4----3---------4----3--------|
B)---------------------------------------------------|

D)-------------------------------|
A)----1----1-3~------------------|
E)-4----3--------1-34---1-34-666-|
B)-------------------------------|

Chorus 1 (00:53)
D)--------------|
A)-3------------|
E)----3-4-666---| x2
B)--------------|

D)--------------------|
A)-3------------------|
E)----3---4---6---888-|
B)--------------------|

Pre-verse (01:07)
D)---------------------------------------|
A)-33333333-66666666---------------------|
E)----------------------------4444-6666--| x3
B)-------------------66666666------------|

D)----------------------------------------|
A)33333333-66666666-----------------------|
E)---------------------------4444-6666-8~-|
B)------------------66666666--------------|

Verse 2 (01:22)
D)------------------------1----|
A)----1----1-3~-------1-----3~-|
E)-4----3----------4----3------|
B)-----------------------------|

D)---------------------------------------------1-----|
A)----1----1-3~------------1----1-3~------1------3~--|
E)-4----3--------1-34-6—4----3---------4----3--------|
B)---------------------------------------------------|

D)-------------------------------|
A)----1----1-3~------------------|
E)-4----3--------1-34---1-34-666-|
B)-------------------------------|

Chorus 2 (01:52)
D)--------------|
A)-3------------|
E)----3-4-666---| x2
B)--------------|

D)--------------------|
A)-3------------------|
E)----3---4---6---888-|
B)--------------------|

D)--------------|
A)-3------------|
E)----3-4-666---| x2
B)--------------|

D)--------------------|
A)-3------------------|
E)----3---4---6---888-|
B)--------------------|


Breakdown (02:18)
D)-------------------11111111-33333333--|
A)-33333333-55555555--------------------|
E)--------------------------------------| x3
B)--------------------------------------|

D)-55555555-66666666-88888888-1010101010101010  (10’s not 1’s and 0-|s)
A)------------------------------------------------------------------|
E)------------------------------------------------------------------|
B)------------------------------------------------------------------|


Guitar Solo part (02:44)
D)---------------|
A)-3-------------|
E)-----3-4-666---| x4
B)---------------|

D)--------
A)3-33-333
E)--------| x8
B)--------|

Chorus 3 (03:26)
D)--------------|
A)-3------------|
E)----3-4-666---| x2
B)--------------|

D)--------------------|
A)-3------------------|
E)----3---4---6---888-|
B)--------------------|

D)--------------|
A)-3------------|
E)----3-4-666---| x2
B)--------------|

D)--------------------|
A)-3------------------|
E)----3---4---6---888-|
B)--------------------|

Outro (03:52)
D)---------------------------------------|
A)-33333333-66666666---------------------|
E)----------------------------4444-6666--| x3
B)-------------------66666666------------|

D)----------------------------------------|
A)33333333-66666666-----------------------|
E)---------------------------4444-6666-8~-|
B)------------------66666666--------------|


Enjoy :)
Suggest correction
Give kudos to tab author, rate the tab!
1 2 3 4 5
comments
print report bad tab
1 comment total.
0 reply
Redink524 50 Oct 27, 2013 06:19 PM

Looks good, but the intro and pre-verse arent repeated 3x.

guest
You may want to rate the tab now too:
select rating
Wanna post a correction for this tab? Suggest correction