Oops, an error
Loading. Please wait.

Buried Alive By Love Chords

version 1
version 1

Whole song

Interactive

by HIM
27,147 views 39 this week
no commentswrite comment
1 2 3 4 5
accurate
x 11
add to favorites
launch autoscroll
font size
0
reset
transpose
0
reset
display chords
guitar tuner
Autoscroll
slow
fast
+/-
esc
set tempo
stop
Help us to improve Ultimate-Guitar.com Take our survey!
×
-------------------------------------------------------------------------------
             Buried Alive by Love (Deliverance version) - HIM
-------------------------------------------------------------------------------
Tabbed by: B. Legacey
Email: heroesrecords@aol.com

Tuning: Standard
-------------------------------------------------------------------------------

This is an acoustic version of Buried Alive by Love, You can find it on:

The Funeral Of Hearts (UK) - 7" single
The Sacrament (limited edition) - cd single

-------------------------------------------------------------------------------

these are the chords, listen to the song to know when to pull-off or hammer-on

   Em       C        Am       D
e|-0--------0--------0--------2p0-or-2h3-------------------------------------|
B|-0--------1--------1p0------3----------------------------------------------|
G|-0--------0--------2--------2----------------------------------------------|
D|-2--------0h2------2--------0----------------------------------------------|
A|-2--------3--------0--------0----------------------------------------------|
E|-3p0------0--------0--------2----------------------------------------------|

-------------------------------------------------------------------------------


-intro-

Em


Em      C                  Em          C
Again the burden of losing rests upon my shoulders

Em      C            Em        C
And its weight seems unbearable

Em           C
Your tomb is where your heart is,

Em         C
I should have told her

Em            C               Em
But within me hid a secret so terrible


   Am                          Em
To cry is to know that you're alive

       Am                     Em
But my river of tears has run dry

  Am              Em
I never wanted to fool you, no

      D
But a cold heart is a dead heart

                                            C
And it feels like I've been buried alive by love


-Chorus-

C
If I should die before I wake

                      Em  D
Pray no one my soul to take

C                  D
If I wake before I die,

                    Em   D
Rescue me with your smile (darlin')

C
If I should die before I wake

                             Em  D
There ain't no one my soul to take

C                  D
If I wake before I die,

                    Em
Rescue me with your smile


Em          C                  Em            C
The kiss of vanity blessed me with a spiritual murder

Em          C           Em       C
And fed the gods of war insatiable

Em           C
Your home is where the dark is

Em            C
I should have told her

Em          C         Em
Embrace the fire indestructible

Am                            Em
To die is to know that you're alive

       Am                       Em
But my river of blood won't run dry

  Am              Em
I never wanted to lose you, no

      D
But a cold heart is a dead heart

                                            C
And it feels like I've been buried alive by love

-chorus-


-solo-
[play twice]

e|-3--3--3-3----3--2--0--0----3--3--3-3----3--2--0--0-|  C /0-|
B|-0--0--0-0----0--0--0--3----0--0--0-0----0--0--0--0-|     3-|
G|-0--0--0-0----0--0--0--0----0--0--0-0----0--0--0--0-|     0-|
D|-2--2--2-2----2--2--2--2----2--2--2-2----2--2--2--2-|     4-|
A|-2--2--2-2----2--2--2--2----2--2--2-2----2--2--2--2-|     5-|
E|-0--0--0-0----0--0--0--0----0--0--0-0----0--0--0--0-|     0-|

       Am                         Em
Oh, to cry is to know that you're alive

       Am                     Em
And my river of tears has run dry

  Am              Em
I never wanted to fool you, no

      D
But a cold heart is a dead heart

  D (quietly)
A deserted soul is gone


A cold heart is a dead heart

       D (stop)                                 C
And it feels like I've been buried alive by love


-chorus-

Em
oh, your smile (x7)

Em
been buried alive by love (x8)

Slowly strum a C on the last "Love"

| /  slide up
| H  hammer-on
| p  pull-off
|
===============================================================================
Suggest correction new What's this?
You can suggest a correction to this tab. Community and Mods will review your correction and vote to approve or reject it.
comments
print report bad tab
guest
You may want to rate the tab now too:
select rating
Please do not post tabs as comments. Select "correction" instead!