Oops, an error
Loading. Please wait.

Cage Tab

version 1
version 1

Whole song

Interactive

by HIM
1,140 views 1 this week
no commentswrite comment
1 2 3 4 5
x 3
add to favorites
launch autoscroll
font size
0
reset
how to read this tab
guitar tuner
Autoscroll
slow
fast
+/-
esc
set tempo
stop
Help us to improve Ultimate-Guitar.com Take our survey!
×
Author
Difficulty
novice
                             The Cage - Him
Tabbed by: Bilawal Soomro       
Email: bilawal_soomro2004@yahoo.com

Tuning: EADGBE

Guitar 1: (just play around with the d chord)

e|2---2---2---0---0---0---3---3---3---0---0---0---------------------|
B|-3---3---3---3---3---3---3---3---2---3---3---3--------------------|
G|--2---2-------2---2-------2---2-------2---2-----------------------|
D|------------------------------------------------------------------|    
A|------------------------------------------------------------------|
E|------------------------------------------------------------------|

Guitar 2
e|------------------------------------------------------------------|
B|------------------------------------------------------------------|
G|------------------------------------------------------------------|
D|------------------------------------------------------------------|
A|2-------5-7-5-----------------------------------------------------|
E|0-------3-5-3-----------------------------------------------------|

Guitar 2:(Main riff)
e|------------------------------------------------------------------|
B|------------------------------------------------------------------|
G|------------------------------------------------------------------|
D|------------------------------------------------------------------|
A|2-2--2-2--5-5--5--5-5-5--2-2--2-2--7-5--5-5---7-5-----------------|
E|0-0--0-0--3-3--3--3-3-3--0-0--0-0--5-3--3-3--0---7-5--------------|

e|------------------------------------------------------------------|
B|------------------------------------------------------------------|
G|------------------------------------------------------------------|
D|------------------------------------------------------------------|
A|2-2--2-2--5-5--5--5-5-5--2-2--2-2--7-5----------------------------|
E|0-0--0-0--3-3--3--3-3-3--0-0--0-0--5-3----------------------------|

verses:  (Palm mute)
    Start playing this when valo sings "waiting for a guardian angel" 
   Try it to play together with the song to synchronise all the notes

e|-----------------------------------------------------------------|
B|-----------------------------------------------------------------|
G|-----------------------------------------------------------------|
D|-----------------------------------------------------------------|
A|2-2-2-2-4-4-5-5-5-5-5-5-5-7-7-7-7-7-7-8--8--8--8--8--8--8--8-----|
E|0-0-0-0-2-2-3-3-3-3-3-3-3-5-5-5-5-9-9-10-10-10-10-10-10-10-10----|

e|-----------------------------------------------------------------|
B|-----------------------------------------------------------------|
G|-----------------------------------------------------------------|
D|---------------------------------------------7-------------------|
A|2-2-2-2-4-4-5-5-5-5-5-5-7-7-7-7-7-9-9-9-9-9--7-------------------|
E|0-0-0-0-2-2-3-3-3-3-3-3-5-5-5-5-5-7-7-7-7-7--5-------------------|

Chorus: 
e|----------------------------------------------------------------------|
B|----------------------------------------------------------------------|
G|----------------------------------------------------------------------|
D|7-7-7-7-7-7-7-7---3-3-3-3-3-3-3-3--5-5-5-5-5-5-5-5---5-5-5-5-5-5-5-5--|
A|7-7-7-7-7-7-7-7---3-3-3-3-3-3-3-3--3-3-3-3-3-3-3-3---5-5-5-5-5-5-5-5--|
E|5-5-5-5-5-5-5-5---1-1-1-1-1-1-1-1--3-3-3-3-3-3-3-3---3-3-3-3-3-3-3-3--|

e|----------------------------------------------------------------------|
B|----------------------------------------------------------------------|
G|----------------------------------------------------------------------|
D|7-7-7-7-7-7-7-7---3-3-3-3-3-3-3-3--5-5-5-5-5-5-5-5---5-5-5-5-5-5-5-5--|
A|7-7-7-7-7-7-7-7---3-3-3-3-3-3-3-3--3-3-3-3-3-3-3-3---5-5-5-5-5-5-5-5--|
E|5-5-5-5-5-5-5-5---1-1-1-1-1-1-1-1--3-3-3-3-3-3-3-3---3-3-3-3-3-3-3-3--|

                 and as your days turn to weeks..........

e|----------------------------------------------------------------------|
B|----------------------------------------------------------------------|
G|----------------------------------------------------------------------|
D|----------------------------------------------------------------------|
A|7-7-7-7-7-7-7-7--9-9-9-9-9-9-9-9--2-2-2-2-2-2-2-2--5--2--5--5-9-5-----|
E|5-5-5-5-5-5-5-5--7-7-7-7-7-7-7-7--0-0-0-0-0-0-0-0--3--0--3--3-7-3-----|

Play the main riff again and the same goes for the second verse and chorus

Bridge:

e|----------------------------------------------------------------------|
B|----------------------------------------------------------------------|
G|----------------------------------------------------------------------|
D|----------------------------------------------------------------------|
A|2-4-5---2-4-5--5-7-5---5---2-4-5--5-7-5-------------------------------|
E|0-2-3---0-2-3--3-5-3---3---0-2-3--3-5-3-------------------------------|

e|----------------------------------------------------------------------|
B|----------------------------------------------------------------------|
G|----------------------------------------------------------------------|
D|----------------------------------------------------------------------|
A|2--4--5--7--9--10--12--14------5--------------------------------------|
E|0--2--3--5--7--8---10--12------3--------------------------------------|

just play the chorus again and thats it, enjoy    

| /  slide up
| \  slide down
| h  hammer-on
| p  pull-off
| ~  vibrato
| +  harmonic
| x  Mute note
============================================================================



Suggest correction
Give kudos to tab author, rate the tab!
1 2 3 4 5
comments
print report bad tab
guest
You may want to rate the tab now too:
select rating
Wanna post a correction for this tab? Suggest correction