Oops, an error
Loading. Please wait.

Circle Of Fear Bass Tab

version 1
version 1

Whole song

Interactive

by HIM
1,138 views 1 this week
no commentswrite comment
1 2 3 4 5
please rate
add to favorites
launch autoscroll
font size
0
reset
guitar tuner
Tab Pro tools
  • play this tab
  • loop segment
  • change instrument
  • show fretboard
  • metronome
×
Best way to learn
"Circle Of Fear"
Autoscroll
slow
fast
+/-
esc
set tempo
stop
-H-I-M-
Circle Of Fear

Intro
G-------------------------------------------------------------------------------------------
D-------------------------------------------------------------------------------------------
A-------------------------------------------------------------------------------------------
E-3-3-5----3-3-5----3-3-1*----3----1----3----3-3-5------------------------------------------


Verse(6 times)
G------------------------------------------------------------------------------------------- 
D-------------------------------------------------------------------------------------------
A-----------------3-3-3-3-3-3-3-3-----------------------------------------------------------
E-5-5-5-5-5-5-5-5-----------------3-3-3-3-3-3-3-3-3-3-3-3-3-3-3-3---------------------------

G------------------------------------------------------------------------------------------- 
D-------------------------------------------------------------------------------------------
A-----------------3-3-3-3-3-3-3-3-----------------------------------------------------------
E-5-5-5-5-5-5-5-5-----------------3-3-3-3-3-3-3-3-3-3-3-3-3-3-3-3---------------------------
 
     Heartache is knocking on her door__.
G------------------------------------------------------------------------------------------- 
D-------------------------------------------------------------------------------------------
A-----------------3-3-3-3-3-3-3-3-----------------------------------------------------------
E-5-5-5-5-5-5-5-5-----------------3-3-3-3-3-3-3-3-3-3-3-3-3-3-3-3---------------------------

       Shadows   dance outside her window_______.
G------------------------------------------------------------------------------------------- 
D-------------------------------------------------------------------------------------------
A-----------------3-3-3-3-3-3-3-3-----------------------------------------------------------
E-5-5-5-5-5-5-5-5-----------------3-3-3-3-3-3-3-3-3-3-3-3-3-3-3-3---------------------------

     Tears keep   falling on the  floor__.
G------------------------------------------------------------------------------------------- 
D-------------------------------------------------------------------------------------------
A-----------------3-3-3-3-3-3-3-3-----------------------------------------------------------
E-5-5-5-5-5-5-5-5-----------------3-3-3-3-3-3-3-3-3-3-3-3-3-3-3-3---------------------------

  As the world      around her      crumbles___.
G------------------------------------------------------------------------------------------- 
D-------------------------------------------------------------------------------------------
A-----------------3-3-3-3-3-3-3-3-----------------------------------------------------------
E-5-5-5-5-5-5-5-5-----------------3-3-3-3-3-3-3-3-3-3-3-3-3-3-3-3---------------------------

Chorus(3 times)
   If you want to   save her____.First you have to save yourself_____.
G------------------------------------------------------------------------------------------- 
D-------------------------------------------------------------------------------------------
A-------------------------------------------------------------------------------------------
E-1-1-1-1-1-1-1-1-3-3-3-3-3-3-3-3-5-5-5-5-5-5-5-5-1-1-1-1-1-1-1-1---------------------------
 
 If you want to free her from the hurt    Don't do it with your pain______.
G------------------------------------------------------------------------------------------- 
D-------------------------------------------------------------------------------------------
A-------------------------------------------------------------------------------------------
E-1-1-1-1-1-1-1-1---3-3-3-3-3-3-3-3-------5-5-5-5-5-5-5-5-1-1-1-1-1-1-1-1-------------------

If you want to see her smile again   Don't show her you're afraid___.
G------------------------------------------------------------------------------------------- 
D-------------------------------------------------------------------------------------------
A-------------------------------------------------------------------------------------------
E-1-1-1-1-1-1-1-1-3-3-3-3-3-3-3-3-5-5-5-5-5-5-5-5-1-1-1-1-1-1-1-1---------------------------
 

Past Chorus
  Because your circle of fear is the same
G-------------------------------------------------------------------------------------------
D-------------------------------------------------------------------------------------------
A-------------------------------------------------------------------------------------------
E-1-1-1-1-1-1-1-1-3-3-3-3-3-3-3-3-----------------------------------------------------------

G------------------------------------------------------------------------------------------- 
D-------------------------------------------------------------------------------------------
A-----------------3-3-3-3-3-3-3-3-----------------------------------------------------------
E-5-5-5-5-5-5-5-5-----------------3-3-3-3-3-3-3-3-3-3-3-3-3-3-3-3---------------------------

G------------------------------------------------------------------------------------------- 
D-------------------------------------------------------------------------------------------
A-----------------3-3-3-3-3-3-3-3-----------------------------------------------------------
E-5-5-5-5-5-5-5-5-----------------3-3-3-3-3-3-3-3-3-3-3-3-3-3-3-3---------------------------

   Love can be     as cold as     grave____.
G------------------------------------------------------------------------------------------- 
D-------------------------------------------------------------------------------------------
A-----------------3-3-3-3-3-3-3-3-----------------------------------------------------------
E-5-5-5-5-5-5-5-5-----------------3-3-3-3-3-3-3-3-3-3-3-3-3-3-3-3---------------------------

  A one-way       ticket to endless  sorrow________.
G------------------------------------------------------------------------------------------- 
D-------------------------------------------------------------------------------------------
A-----------------3-3-3-3-3-3-3-3-----------------------------------------------------------
E-5-5-5-5-5-5-5-5--------------------3-3-3-3-3-3-3-3-3-3-3-3-3-3-3-3------------------------

        An empire of gentle       hate_______.
G------------------------------------------------------------------------------------------- 
D-------------------------------------------------------------------------------------------
A-----------------3-3-3-3-3-3-3-3-----------------------------------------------------------
E-5-5-5-5-5-5-5-5-----------------3-3-3-3-3-3-3-3-3-3-3-3-3-3-3-3---------------------------

          Today   without          tomorrow___________.
G------------------------------------------------------------------------------------------- 
D-------------------------------------------------------------------------------------------
A-----------------3-3-3-3-3-3-3-3-----------------------------------------------------------
E-5-5-5-5-5-5-5-5-----------------3-3-3-3-3-3-3-3-3-3-3-3-3-3-3-3---------------------------

Chorus(3 times)
If you want to   save her____.First you have to save yourself_____.
G------------------------------------------------------------------------------------------- 
D-------------------------------------------------------------------------------------------
A-------------------------------------------------------------------------------------------
E-1-1-1-1-1-1-1-1-3-3-3-3-3-3-3-3-5-5-5-5-5-5-5-5-1-1-1-1-1-1-1-1---------------------------
 
 If you want to free her from the hurt    Don't do it with your pain______.
G------------------------------------------------------------------------------------------- 
D-------------------------------------------------------------------------------------------
A-------------------------------------------------------------------------------------------
E-1-1-1-1-1-1-1-1---3-3-3-3-3-3-3-3-------5-5-5-5-5-5-5-5-1-1-1-1-1-1-1-1-------------------

If you want to see her smile again   Don't show her you're afraid___.
G------------------------------------------------------------------------------------------- 
D-------------------------------------------------------------------------------------------
A-------------------------------------------------------------------------------------------
E-1-1-1-1-1-1-1-1-3-3-3-3-3-3-3-3-5-5-5-5-5-5-5-5-1-1-1-1-1-1-1-1---------------------------
 
Bridge(NO BASS)

Chorus(3 times)
If you want to   save her____.First you have to save yourself_____.
G------------------------------------------------------------------------------------------- 
D-------------------------------------------------------------------------------------------
A-------------------------------------------------------------------------------------------
E-1-1-1-1-1-1-1-1-3-3-3-3-3-3-3-3-5-5-5-5-5-5-5-5-1-1-1-1-1-1-1-1---------------------------
 
 If you want to free her from the hurt    Don't do it with your pain______.
G------------------------------------------------------------------------------------------- 
D-------------------------------------------------------------------------------------------
A-------------------------------------------------------------------------------------------
E-1-1-1-1-1-1-1-1---3-3-3-3-3-3-3-3-------5-5-5-5-5-5-5-5-1-1-1-1-1-1-1-1-------------------

If you want to see her smile again   Don't show her you're afraid___.
G------------------------------------------------------------------------------------------- 
D-------------------------------------------------------------------------------------------
A-------------------------------------------------------------------------------------------
E-1-1-1-1-1-1-1-1-3-3-3-3-3-3-3-3-5-5-5-5-5-5-5-5-1-1-1-1-1-1-1-1---------------------------
 

Past Chorus
  Because your circle of fear is the same
G-------------------------------------------------------------------------------------------
D-------------------------------------------------------------------------------------------
A-------------------------------------------------------------------------------------------
E-1-1-1-1-1-1-1-1-3-3-3-3-3-3-3-3-----------------------------------------------------------



Verse (6 times)
Chorus (3 times)
Past Chorus
Bridge (No bass)
Chorus (3 times)
Past Chorus
Verse (4 times)
Intro (let the last note ring)

*You can play this note as a low D, you have to turn your E string to a D then and
than you have to play every note 2 frets to the right i think. Or as a high D or just 
as E-1- Do what you like:)

Maybe Mige makes more variations,but i only heard this one clearly one time in the chorus
G----------------------------------------------------------------
D----------------------------------------------------------------
A----------------------------------------------------------------
E-1-1-1-1-1-1-1-1-3-3-3-3-3-3-3-3-5-5-5-5-5-5-3-5-1-1-1-1-1-1-1-1


Heartache is knocking on her door
Shadows dance outside her window
Tears keep falling on the floor
As theworld around her crumbles

If you want to save her
First you have to save yourself
If you want to free her from the hurt
Don't do it with your pain
If you want to see her smile again
Don't show her you're afraid
Because your circle of fear is the same

Love can be as cold as grave
A one-way ticket to endless sorrow
An empire of gentle hate
Today without tomorrow

If you want to save her
First you have to save yourself
If you want to free her from the hurt
Don't do it with your pain
If you want to see her smile again
Don't show her you're afraid
Because your circle of fear is the same

It's the circle of regret
The circle of hate
The circle of death
Your circle of fear is the same
comments
We did not receive enough feedback on this tab! Please rate:
print report bad tab
1 2 3 4 5
I want to post or [tab]
guest
You may want to rate the tab now too:
select rating
Please do not post tabs as comments. Select "correction" instead!