Oops, an error
Loading. Please wait.

Circle Of Fear Tab

version 4
version 4

Whole song

Interactive

by HIM
386 views 4 this week
6 commentsread comments
1 2 3 4 5
accurate
x 3
add to favorites
launch autoscroll
font size
0
reset
how to read this tab
guitar tuner
Tab Pro tools
  • play this tab
  • loop segment
  • change instrument
  • show fretboard
  • metronome
×
Best way to learn
"Circle Of Fear"
Autoscroll
slow
fast
+/-
esc
set tempo
stop
Contributor
HIM
Circle Of Fear
Guitar Tab
Drop D Tuning
Tabbed By Jonathan Mack


. Palm Mute
h Hammer On
p Pull Off
v Vibrato


Intro

Rhythm Guitar
0:00                       0:19
|--------|--------|--------|-----|-----|-----|--------|
|--------|--------|--------|-----|-----|-----|--------|
|--------|--------|--------|-----|-----|-----|--------|
|55-7----|55-7----|55-0----|2----|3----|2----|55-7----| x1
|55-7----|55-7----|55-0----|2----|3----|2----|55-7----|
|55-7----|55-7----|55-0----|2----|3----|2----|55-7----|


Lead Guitar
0:01
|----------|----------|----------|---------------|
|----------|----------|----------|---------------|
|--4p2---5v|--4p2-----|--4p2---5v|---------------|
|2-----2---|2-----2-5v|2-----2---|2h3p2----------| x3
|----------|----------|----------|------5-3-5-2--|
|----------|----------|----------|---------------|
       .          .          .
          
0:23
|----------|----------|----------|-----------------|
|----------|----------|----------|-----------------|
|--4p2---5v|--4p2-----|--4p2---5v|-----------------|
|2-----2---|2-----2-5v|2-----2---|2h3p2------------| x1
|----------|----------|----------|------5-3-5-2-0--|
|----------|----------|----------|-----------------|
       .          .          .

Verse One

Lead Guitar
0:37
|-------|-------|-------|-------|-------|
|-------|-------|-------|-------|----0--|
|----5--|----5--|----5--|----5--|-------|
|--7---7|--7---7|--7---7|--7---7|--7----| x8
|0------|3------|-------|-------|-------|
|-------|-------|5------|5------|5------|

Bass
0:52
|--------|----------------|------------------|
|--------|----------------|------------------|
|--------|----------------|------------------|
|--------|----------------|------------------| x6
|--------|----------------|------------------|
|77777777|1010101010101010|5555555555555555--|


Synthesizer
0:49
|7-5---->
|----8-->
|------->
|-------> 
|------->
|------->

0:52
|-----7-5----|
|5--------8--|
|------------|
|------------| x7
|------------|
|------------|


Chorus One

Rhythm Guitar
1:35
|-------|
|-------|
|-------|
|5-2-5-2| x1
|5-2-5-2|
|5-2-5-2|

1:36
|----------------------------------|
|----------------------------------|
|----------------------------------|
|33-333-555-5555-77-777-333-333-0--| x2
|33-333-555-5555-77-777-333-333-0--|
|33-333-555-5555-77-777-333-333-0--|

1:51
|----------------------------------|
|----------------------------------|
|----------------------------------|
|33-333-555-5555-77-757-333-333-0--| x1
|33-333-555-5555-77-757-333-333-0--|
|33-333-555-5555-77-757-333-333-0--|

1:58
|-----------------|
|-----------------|
|-----------------|
|33-333-555-5555--| x1
|33-333-555-5555--|
|33-333-555-5555--|


Lead Guitar
1:36
|----------|----------|----------|---------------|
|----------|----------|----------|---------------|
|--4p2---5v|--4p2-----|--4p2---5v|---------------|
|2-----2---|2-----2-5v|2-----2---|2h3p2----------| x3
|----------|----------|----------|------5-3-5-2--|
|----------|----------|----------|---------------|
       .          .          .

1:58
|----------|------------|
|----------|------------|
|--4p2---5v|--4p2-------|
|2-----2---|2-----2-5v--| x1
|----------|------------|
|----------|------------|
       .          .

Synthesizer
1:51
|555555555555555555555555|
|------------------------|
|------------------------|
|------------------------| x2
|------------------------|
|------------------------|


Verse Two

Lead Guitar
2:02
|-------|-------|-------|-------|-------|
|-------|-------|-------|-------|----0--|
|----5--|----5--|----5--|----5--|-------|
|--7---7|--7---7|--7---7|--7---7|--7----| x6
|0------|3------|-------|-------|-------|
|-------|-------|5------|5------|5------|

Bass
2:02
|--------|----------------|------------------|
|--------|----------------|------------------|
|--------|----------------|------------------|
|--------|----------------|------------------| x6
|--------|----------------|------------------|
|77777777|1010101010101010|5555555555555555--|

Synthesizer
2:02
|---------7-5----|
|5------------8--|
|----------------|
|----------------| x6
|----------------|
|----------------|


Chorus Two

Rhythm Guitar

2:45
|-------|
|-------|
|-------|
|5-2-5-2| x1
|5-2-5-2|
|5-2-5-2|

2:46
|----------------------------------|
|----------------------------------|
|----------------------------------|
|33-333-555-5555-77-777-333-333-0--| x2
|33-333-555-5555-77-777-333-333-0--|
|33-333-555-5555-77-777-333-333-0--|

3:00
|----------------------------------|
|----------------------------------|
|----------------------------------|
|33-333-555-5555-77-757-333-333-0--| x1
|33-333-555-5555-77-757-333-333-0--|
|33-333-555-5555-77-757-333-333-0--|

3:08
|-----------------|
|-----------------|
|-----------------|
|33-333-555-5555--| x1
|33-333-555-5555--|
|33-333-555-5555--|


Lead Guitar
2:46
|----------|----------|----------|---------------|
|----------|----------|----------|---------------|
|--4p2---5v|--4p2-----|--4p2---5v|---------------|
|2-----2---|2-----2-5v|2-----2---|2h3p2----------| x3
|----------|----------|----------|------5-3-5-2--|
|----------|----------|----------|---------------|
       .          .          .

3:08
|----------|------------|
|----------|------------|
|--4p2---5v|--4p2-------|
|2-----2---|2-----2-5v--| x1
|----------|------------|
|----------|------------|
       .          .

Synthesizer
3:00
|555555555555555555555555|
|------------------------|
|------------------------|
|------------------------| x2
|------------------------|
|------------------------|


Bridge Section

Bass
3:11
|----------------------------------|
|----------------------------------|
|----------------------------------|
|----------------------------------| x2
|----------------------------------|
|00000000000000003333333333333333--|
 ................................

Rhythm Guitar
3:26
|-------|-------|-------|-------|-------|
|-------|-------|-------|-------|----0--|
|----5--|----5--|----5--|----5--|-------|
|--7---7|--7---7|--7---7|--7---7|--7----| x2
|0------|3------|-------|-------|-------|
|-------|-------|5------|5------|5------|


Synthesizer
3:38
|7-5----|
|----8--|
|-------|
|-------| x1
|-------|
|-------|


Chorus Three

Rhythm Guitar
3:40
|-------|
|-------|
|-------|
|5-2-5-2| x1
|5-2-5-2|
|5-2-5-2|

3:41
|----------------------------------|
|----------------------------------|
|----------------------------------|
|33-333-555-5555-77-777-333-333-0--| x2
|33-333-555-5555-77-777-333-333-0--|
|33-333-555-5555-77-777-333-333-0--|

3:55
|----------------------------------|
|----------------------------------|
|----------------------------------|
|33-333-555-5555-77-757-333-333-0--| x1
|33-333-555-5555-77-757-333-333-0--|
|33-333-555-5555-77-757-333-333-0--|

4:03
|-----------------|
|-----------------|
|-----------------|
|33-333-555-5555--| x1
|33-333-555-5555--|
|33-333-555-5555--|

Synthesizer
3:41
|---------7-5----|
|5------------8--|
|----------------|
|----------------| x4
|----------------|
|----------------|

Lead Guitar
3:42
|----------|----------|----------|---------------|
|----------|----------|----------|---------------|
|--4p2---5v|--4p2-----|--4p2---5v|---------------|
|2-----2---|2-----2-5v|2-----2---|2h3p2----------| x3
|----------|----------|----------|------5-3-5-2--|
|----------|----------|----------|---------------|
       .          .          .

4:03
|----------|-----------|
|----------|-----------|
|--4p2---5v|--4p2------|
|2-----2---|2-----2----| x1
|----------|-----------|
|----------|-----------|
       .          .   


Chorus Extension

Rhythm Guitar
4:06
|--------------------------------------------|
|--------------------------------------------|
|--------------------------------------------|
|77777777-1010101010101010-5555555555555555--| x3
|77777777-1010101010101010-5555555555555555--|
|77777777-1010101010101010-5555555555555555--|

4:28
|----------------------------------------|
|----------------------------------------|
|----------------------------------------|
|77777777-1010101010101010-555555555555--| x1
|77777777-1010101010101010-555555555555--|
|77777777-1010101010101010-555555555555--|

Lead Guitar
4:07
|----------|----------|----------|---------------|
|----------|----------|----------|---------------|
|--4p2---5v|--4p2-----|--4p2---5v|---------------|
|2-----2---|2-----2-5v|2-----2---|2h3p2----------| x4
|----------|----------|----------|------5-3-5-2--|
|----------|----------|----------|---------------|
       .          .          .


Outro

Rhythm Guitar
4:35                        4:54
|--------|--------|--------|-----|-----|-----|--------|
|--------|--------|--------|-----|-----|-----|--------|
|--------|--------|--------|-----|-----|-----|--------|
|55-7----|55-7----|55-0----|2----|3----|2----|55-7----| x1
|55-7----|55-7----|55-0----|2----|3----|2----|55-7----|
|55-7----|55-7----|55-0----|2----|3----|2----|55-7----|

Lead Guitar
4:36
|----------|----------|----------|---------------|
|----------|----------|----------|---------------|
|--4p2---5v|--4p2-----|--4p2---5v|---------------|
|2-----2---|2-----2-5v|2-----2---|2h3p2----------| x3
|----------|----------|----------|------5-3-5-2--|
|----------|----------|----------|---------------|
       .          .          .
4:58
|----------|----------|----------|-----------------|
|----------|----------|----------|-----------------|
|--4p2---5v|--4p2-----|--4p2---5v|-----------------|
|2-----2---|2-----2-5v|2-----2---|2h3p2------------| x1
|----------|----------|----------|------5-3-5-2-0--|
|----------|----------|----------|-----------------|
       .          .          .

comments
We did not receive enough feedback on this tab! Please rate:
print report bad tab
1 2 3 4 5
6 comments total. Showing first comments.
0 reply
.:Blackened:. wrote on March 19 2010, 11:41 am

Good stuff, but the song is in standard.

0 reply
SilverSpurs616 wrote on March 19 2010, 11:43 am

Song is in standard tuning, and its also missing a lot as well as having several glaring mistakes :(

0 reply
Nomski wrote on March 20 2010, 08:26 am

HIM Might Play It In Standard.Thats Fair Enough..
However In Standard Tuning You Cant Reach The
Lower D That Is Played In The Intro.
Also,I Find It Makes Other Things In The Song Alot More Simple To Play.
But I Guess Its All Down To Personal Preference?

|--------|--------|--------|-----|-----|-----|--------|
|--------|--------|--------|-----|-----|-----|--------|
|--------|--------|--------|-----|-----|-----|--------|
|55-7----|55-7----|55-0----|2----|3----|2----|55-7----| x1
|55-7----|55-7----|55-0----|2----|3----|2----|55-7----|
|55-7----|55-7----|55-0----|2----|3----|2----|55-7----|
^ Here!

Oh,And 'Silverspurs616' Can You Please Tell Me Where My Mistakes Are? =|

I want to post or [tab]
guest
You may want to rate the tab now too:
select rating
Please do not post tabs as comments. Select "correction" instead!