Oops, an error
Loading. Please wait.

Enjoy The Silence Bass Tab

version 1
version 1

Whole song

Interactive

by HIM
1,400 views 12 this week
no commentswrite comment
1 2 3 4 5
please rate
add to favorites
launch autoscroll
font size
0
reset
guitar tuner
Autoscroll
slow
fast
+/-
esc
set tempo
stop
Help us to improve Ultimate-Guitar.com Take our survey!
×
Author
#----------------------------------PLEASE NOTE---------------------------------#
#This file is the author's own work and represents their interpretation of the #
#song. You may only use this file for private study, scholarship, or research. #
#------------------------------------------------------------------------------##

                       ENJOY THE SILENCE (LIVE) (Bassline)
                              As recorded by H.I.M.

Words and Music by Depeche Mode
Arranged by H.I.M.
Transcribed by vitaha_z

Gtr I (B E A D) - 'bass'
Gtr II (B E A D) - 'synth'

 Intro
  Q=120
 4/4
  Gtr II
  W          W          W          W          W
|----------|----------|-7--------|----------|-7----|
|----------|-9--------|----------|-9--------|------|
|----------|----------|----------|----------|------|
|----------|----------|----------|----------|------|


    $
    Gtr I
    E E E E E E E E    E  E  E  E  E  E  E  E
||------------------|-------------------------|
||o-----------------|-------------------------|
||o-----------------|-------------------------|
||--7-7-7-7-7-7-7-7-|-10-10-10-10-10-10-10-10-|
|
|   Gtr II
|   W                  W
||------------------|--7----------------------|
||o-9---------------|-------------------------|
||o-----------------|-------------------------|
||------------------|-------------------------|


  E E E E E E E E    E  E  E  E  E  E  E  E
|-----------------|--------------------------||
|-----------------|-------------------------o||
|-----------------|-------------------------o||
|-7-7-7-7-7-7-7-7-|-10-10-10-10-10-10-10-10--||
|
| W                  W
|-----------------|--7-----------------------||
|-9---------------|-------------------------o||
|-----------------|-------------------------o||
|-----------------|--------------------------||


 Verse
  E E E E E E E E    E  E  E  E  E  E  E  E
|-----------------|-------------------------|
|-----------------|-------------------------|
|-----------------|-------------------------|
|-7-7-7-7-7-7-7-7-|-10-10-10-10-10-10-10-10-|
|
| W                  W
|-----------------|--7----------------------|
|-9---------------|-------------------------|
|-----------------|-------------------------|
|-----------------|-------------------------|


   E  E  E  E  E  E  E  E    E  E  E  E  E  E  E  E
|-------------------------|--------------------------|
|-------------------------|--------------------------|
|-10-10-10-10-10-10-10-10-|-10-10-10-10-10-10-10-10--|
|-------------------------|--------------------------|
|
|  W                         W
|-------------------------|--------------------------|
|-------------------------|--------------------------|
|-10----------------------|-10-----------------------|
|-------------------------|--------------------------|


  E E E E E E E E    E  E  E  E  E  E  E  E    E  E  E  E  E  E  E  E    W
|-----------------|-------------------------|-------------------------|-------||
|-----------------|-------------------------|-------------------------|-------||
|-----------------|-------------------------|-10-10-10-10-10-10-10-10-|-10----||
|-7-7-7-7-7-7-7-7-|-10-10-10-10-10-10-10-10-|-------------------------|-------||
|
| W                  W                         W                         W
|-----------------|--7----------------------|-------------------------|-------||
|-9---------------|-------------------------|-------------------------|-------||
|-----------------|-------------------------|-10----------------------|-10----||
|-----------------|-------------------------|-------------------------|-------||


 Chorus
  Q  E Q  E E E   Q  E Q  E E E   Q  E Q  E E E   Q  E Q  E E E
|---------------|---------------|---------------|----------------|
|---------------|---------------|---------------|----------------|
|---------------|---------------|---------------|----------------|
|-0--0-0--0-0-0-|-3--3-3--3-3-3-|-7--7-7--7-7-7-|-5--5-5--5-5-5--|
|
| W               W               W               W
|---------------|---------------|---------------|----------------|
|---------------|-5-------------|---------------|----------------|
|-7-------------|---------------|---------------|----------------|
|---------------|---------------|-7-------------|-5--------------|


  Q  E Q  E E E   Q  E Q  E E E   Q  E E E E E E   E E E E E E E E
|---------------|---------------|----------------|------------------|
|---------------|---------------|----------------|------------------|
|---------------|---------------|----------------|------------------|
|-0--0-0--0-0-0-|-3--3-3--3-3-3-|-7--7-7-7-7-7-7-|-6-6-6-6-6-6-6-6--|
|
| W               W               W                W
|---------------|---------------|----------------|------------------|
|---------------|-5-------------|----------------|------------------|
|-7-------------|---------------|----------------|------------------|
|---------------|---------------|-7--------------|-6----------------|


         To Coda     D.S. al Coda
  E E E E E E E E   W          W
|-----------------|----------|-------||
|-----------------|----------|-------||
|-----------------|----------|-------||
|-6-6-6-6-6-6-6-6-|----------|-------||


   Guitar Solo
    &
    E E E E E E E E    E  E  E  E  E  E  E  E
||------------------|-------------------------|
||o-----------------|-------------------------|
||o-7-7-7-7-7-7-7-7-|-10-10-10-10-10-10-10-10-|
||------------------|-------------------------|


  E E E E E E E E   E E E E E E E E
|-----------------|------------------||
|-----------------|-----------------o||
|-----------------|-----------------o||
|-7-7-7-7-7-7-7-7-|-5-5-5-5-5-5-5-5--||


    E E E E E E E E   E E E E E E E E
||------------------|-----------------|
||o-----------------|-----------------|
||o-----------------|-----------------|
||--7-7-7-7-7-7-7-7-|-5-5-5-5-5-5-5-5-|


                   1.                  2.
  E E E E E E E E   E E E E E E E E     H     H
|-----------------|------------------||-------------|
|-----------------|-----------------o||-------------|
|-----------------|-----------------o||-------------|
|-7-7-7-7-7-7-7-7-|-5-5-5-5-5-5-5-5--||------17\----|


   Chorus
    Q  E Q  E E E   Q  E Q  E E E   Q  E Q  E E E   Q  E Q  E E E
||----------------|---------------|---------------|---------------|
||o---------------|---------------|---------------|---------------|
||o---------------|---------------|---------------|---------------|
||--0--0-0--0-0-0-|-3--3-3--3-3-3-|-7--7-7--7-7-7-|-5--5-5--5-5-5-|
|
|   Gtr II
|   W               W               W               W
||----------------|---------------|---------------|---------------|
||o---------------|-5-------------|---------------|---------------|
||o-7-------------|---------------|---------------|---------------|
||----------------|---------------|-7-------------|-5-------------|


  Q  E Q  E E E   Q  E Q  E E E   Q  E E E E E E
|---------------|---------------|----------------|
|---------------|---------------|----------------|
|---------------|---------------|----------------|
|-0--0-0--0-0-0-|-3--3-3--3-3-3-|-7--7-7-7-7-7-7-|
|
| W               W               W
|---------------|---------------|----------------|
|---------------|-5-------------|----------------|
|-7-------------|---------------|----------------|
|---------------|---------------|-7--------------|


  E E E E E E E E     E E E E E E E E
|------------------||-------------------||
|-----------------o||-------------------||
|-----------------o||-------------------||
|-6-6-6-6-6-6-6-6--||-6-6-6-6-6-6-6-6---||
|
| W                   W
|------------------||-------------------||
|-----------------o||-------------------||
|-----------------o||-------------------||
|-6----------------||-6-----------------||


   Guitar Break
                                    1.           2.
    Gtrs I, II                                    Gtr I
    W          W          W          W            E E Q.   E E E
||-----------|----------|----------|-----------||-----------------||
||o----------|----------|----------|----------o||-----------------||
||o-7--------|----------|----------|----------o||-----------------||
||-----------|-3--------|-7--------|-5---------||---5-5----5-5-5--||


 Out-Chorus
  Gtr I
  Q  E Q  E E E   Q  E Q  E E E   Q  E Q  E E E   Q  E Q  E E E
|---------------|---------------|---------------|----------------|
|---------------|---------------|---------------|----------------|
|---------------|---------------|---------------|----------------|
|-0--0-0--0-0-0-|-3--3-3--3-3-3-|-7--7-7--7-7-7-|-5--5-5--5-5-5--|
|
| Gtr II
| W               W               W               W
|---------------|---------------|---------------|----------------|
|---------------|-5-------------|---------------|----------------|
|-7-------------|---------------|---------------|----------------|
|---------------|---------------|-7-------------|-5--------------|


  Q  E Q  E E E   Q  E Q  E E E   Q  E E E E E E   E E E E E E E E
|---------------|---------------|----------------|------------------|
|---------------|---------------|----------------|------------------|
|---------------|---------------|----------------|------------------|
|-0--0-0--0-0-0-|-3--3-3--3-3-3-|-7--7-7-7-7-7-7-|-6-6-6-6-6-6-6-6--|
|
| W               W               W                W
|---------------|---------------|----------------|------------------|
|---------------|-5-------------|----------------|------------------|
|-7-------------|---------------|----------------|------------------|
|---------------|---------------|-7--------------|-6----------------|


  Q  E Q  E E E   Q  E Q  E E E   Q  E Q  E E E   Q  E Q  E E E
|---------------|---------------|---------------|----------------|
|---------------|---------------|---------------|----------------|
|---------------|---------------|---------------|----------------|
|-0--0-0--0-0-0-|-3--3-3--3-3-3-|-7--7-7--7-7-7-|-5--5-5--5-5-5--|
|
| W               W               W               W
|---------------|---------------|---------------|----------------|
|---------------|-5-------------|---------------|----------------|
|-7-------------|---------------|---------------|----------------|
|---------------|---------------|-7-------------|-5--------------|


  Q  E Q  E E E   Q  E Q  E E E   Q  E Q  E E E
|---------------|---------------|---------------|
|---------------|---------------|---------------|
|---------------|---------------|---------------|
|-0--0-0--0-0-0-|-3--3-3--3-3-3-|-7--7-7--7-7-7-|
|
| W               W               W
|---------------|---------------|---------------|
|---------------|-5-------------|---------------|
|-7-------------|---------------|---------------|
|---------------|---------------|-7-------------|


  Q  E Q  E E E   Q  E Q  E E E
|---------------|-----------------|
|---------------|-----------------|
|---------------|-----------------|
|-6--6-6--6-6-6-|-6--6-6--6-6-6---|
|
| W               W
|---------------|-----------------|
|---------------|-----------------|
|---------------|-----------------|
|-6-------------|-----------------|


  E. S S S E. S S S E. S   S S Q  S S E E E E   Q  E Q  E E E   Q  E Q  E E E
|------------------------|--------------------|---------------|----------------|
|------------------------|--------------------|---------------|----------------|
|------------------------|--------------------|---------------|----------------|
|-6--6-6-6-6--6-6-6-6--6-|-6-6-6--6-6-6-6-6-6-|-6--6-6--6-6-6-|-6--6-6--6-6-6--|


  E. S S S E. S S S E. S   S S Q  S S E E E E   W          +H     H
|------------------------|--------------------|----------|-------------*|
|------------------------|--------------------|----------|-------------*|
|------------------------|--------------------|----------|-------------*|
|-6--6-6-6-6--6-6-6-6--6-|-6-6-6--6-6-6-6-6-6-|-5--------|-(5)---------*|


Duration Legend
---------------
W - whole; H - half; Q - quarter; E - 8th; S - 16th; T - 32nd; X - 64th; a - acciaccatura
+ - note tied to previous; . - note dotted; .. - note double dotted
Uncapitalized letters represent notes that are staccato (1/2 duration)
Irregular groupings are notated above the duration line
Duration letters will always appear directly above the note/fret number it represents the
duration for.  Duration letters with no fret number below them represent rests.  Multi-
bar rests are notated in the form Wxn, where n is the number of bars to rest for.  Low
melody durations appear below the staff

Tablature Legend
----------------
 h   - hammer-on
 p   - pull-off
 b   - bend
 pb  - pre-bend
 r   - bend release (if no number after the r, then release immediately)
 /\  - slide into or out of (from/to "nowhere")
 s   - legato slide
 S   - shift slide
  - natural harmonic
[n]  - artificial harmonic
n(n) - tapped harmonic
 ~   - vibrato
 tr  - trill
 T   - tap
 TP  - trem. picking
 PM  - palm muting
\n/  - tremolo bar dip; n = amount to dip
 \n  - tremolo bar down
 n/  - tremolo bar up
/n\  - tremolo bar inverted dip
 =   - hold bend; also acts as connecting device for hammers/pulls
 <>  - volume swell (louder/softer)
 x   - on rhythm slash represents muted slash
 o   - on rhythm slash represents single note slash

Misc Legend
-----------
 |  - bar
||  - double bar
||o - repeat start
o|| - repeat end
*|  - double bar (ending)
 :  - bar (freetime)
 $  - Segno
 &  - Coda
Tempo markers -  = BPM(8/16=s8/s16), where s8 = swing 8ths, s16 = swing 16ths
Suggest correction
What's this?
You can suggest a correction to this tab. Community and Mods will review your correction and vote to approve or reject it.
comments
We did not receive enough feedback on this tab! Please rate:
print report bad tab
1 2 3 4 5
guest
You may want to rate the tab now too:
select rating
Please do not post tabs as comments. Select "correction" instead!