Oops, an error
Loading. Please wait.

Face Of God Chords

version 1
version 1

Whole song

Interactive

by HIM
5,130 views 27 this week
2 commentsread comments
1 2 3 4 5
x 5
add to favorites
launch autoscroll
font size
0
reset
transpose
0
reset
display chords
guitar tuner
Autoscroll
slow
fast
+/-
esc
set tempo
stop
Help us to improve Ultimate-Guitar.com Take our survey!
×
Author
Difficulty
novice
Alright... this is song is pretty easy to play once you get it....I'm surprised no one 
get this anyway here it is.

Standard Tuning

Intro:

12x(fast) (I think) 4x(faster than before than before)   Repeat this 7 times
D--2------------0-|
A--2------------1-|
E--0--------------|


Verse:
I Kinda didnt get it that much but what I have is good enough trust me
[--Em-][-G-] [-Em-----------------------------------------------|[-D-][-C-][G]  [-Em-][-D-]    [D]
---------------------------------------------------------2------| prechorus
-----------------0------3--1----0------0-----3-----3------------|Or3
-----0----0----0--0----2----0----0------0---2------3-----2------|
----2-2--0------------0------2-------------0-------3-----0------|
--------------2-----------3-----------2------------5-----0------|
---0----3----------------------3-----0-------------5-----0------|

prechorus:
   C        G          D      GGG C (play those chords)
I'd kill to share your pain
(And carry the shame)
    C       G            D       Em
And sell my soul for you just to say

Chorus:
(play the intro here until said so)
I dream what you're dreaming
And feel what you're feeling
           C             G
Love's our shadow on the wall
         D                     Em
With the face ooooooOOOoooOOOf god

Interlude:I got lazy and didnt do a very good job on this but is sounds good
 (this is all in Em)               Repeat this as many times as it is played
D--2-let ring--2/4--0h2-2-2/4--0h2-|
A--2-let ring----------------------|
E----let ring----------------------|

                                        (Rythm)
Interlude : Just play Em like this( -v--vvvvv-vvvvv-- ) U have to mute this ok
figure out your own way onto how to change notes when you get to the pre.
Suggest correction
comments
print report bad tab
2 comments total.
0 reply
LDscholar 93 Jan 11, 2006 01:48 PM

FYI: The intro's an open E with a low-Q wah that slides up to the 10th fret very fast. Listen to the song - you should be able to hear the slide.

0 reply
ZepFloydRock101 10 May 23, 2006 07:02 PM

^^FYI you are still wrong.
it's more like this (not exact timing but you'll get it)

E---------------------------|
B---------------------------|
G-----------------------777-|
D-----------------------xxx-|
A---2-----2-----2--(2)/-555-|
E-0-0-0-0-0-0-0-0-----------| (repeat)


guest
You may want to rate the tab now too:
select rating
Wanna post a correction for this tab? Suggest correction