Oops, an error
Loading. Please wait.

For You Bass Tab

version 3
version 3

Whole song

by HIM
365 views 1 this week
no commentswrite comment
1 2 3 4 5
please rate
add to favorites
launch autoscroll
font size
0
reset
guitar tuner
Tab Pro tools
  • play this tab
  • loop segment
  • change instrument
  • show fretboard
  • metronome
Autoscroll
slow
fast
+/-
esc
set tempo
stop
Contributor
#----------------------------------PLEASE NOTE---------------------------------#
#This file is the author's own work and represents their interpretation of the #
#song. You may only use this file for private study, scholarship, or research. #
#------------------------------------------------------------------------------##

                               FOR YOU (Bassline)
                               As recorded by HIM
                (From the 1997 Album GREATEST LOVESONGS VOL. 666)

Words by Ville Valo

Music by HIM
Arranged by HIM
Transcribed by CUBErt

Gtr I (E A D G) - 'Untitled'

 Intro
  Q=108
 4/4
  Gtr I
  Wx9          Q  H.
|------------|----------|
|------------|----------|
|------------|----------|
|------------|----------|


    B                               D           E
    Q  E E Q  E E   E E E E Q  Q    Q  E E Q  E E   E E E E Q  E E
||----------------|---------------|---------------|-----------------||
||o---------------|---------------|---------------|----------------o||
||o-2----2-2----2-|---2---2-2-----|-5----5-5----7-|---7---7-7------o||
||----------------|---------------|---------------|-----------------||


   Verse
    B       C#D  E                 D C#
    PM----|              PM------|
    E E E E E Q  E   +E  E E E E E E E
||-----------------|-------------------|
||o----------------|-------------------|
||o-2-2-2-2-4-5--7-|-(7)-7-7-7-7-7-5-4-|
||-----------------|-------------------|


  B       C#D  A           G       E F#E
  PM----|
  E E E E E Q  E   +E  E E E +E  E S S E
|----------------|-------------------------||
|--------------7-|-(7)-7-7-5-(5)-5---4----o||
|-2-2-2-2-4-5----|-----------------7---7--o||
|----------------|-------------------------||


   Chorus
    B                               D           E
    Q  E E Q  E E   E E E E Q  Q    Q  E E Q  E E   E E E E Q  E E
||----------------|---------------|---------------|-----------------||
||o---------------|---------------|---------------|----------------o||
||o-2----2-2----2-|---2---2-2-----|-5----5-5----7-|---7---7-7------o||
||----------------|---------------|---------------|-----------------||


   Verse
    B       C#D  E                 D C#
    PM----|              PM------|
    E E E E E Q  E   +E  E E E E E E E
||-----------------|-------------------|
||o----------------|-------------------|
||o-2-2-2-2-4-5--7-|-(7)-7-7-7-7-7-5-4-|
||-----------------|-------------------|


  B       C#D  A           G       E F#E
  PM----|
  E E E E E Q  E   +E  E E E +E  E S S E
|----------------|-------------------------||
|--------------7-|-(7)-7-7-5-(5)-5---4----o||
|-2-2-2-2-4-5----|-----------------7---7--o||
|----------------|-------------------------||


   Chorus
    B    B                          D           E
    Q  E E Q  E E   E E E E Q  Q    Q  E E Q  E E   E E E E Q  E E  4x
||----------------|---------------|---------------|-----------------||
||o---------------|---------------|---------------|----------------o||
||o-2----2-2----2-|---2---2-2-----|-5----5-5----7-|---7---7-7------o||
||----------------|---------------|---------------|-----------------||


 Breakdown
  Wx3          W
|------------|------|
|------------|------|
|------------|------|
|------------|------|


   Interlude
    E                                  F#
    Q  E E E +E  E E   E E E E E +E  E E
||-------------------|-------------------|
||o------------------|-------------------|
||o------------------|-------------------|
||--0----0-0-(0)---0-|---0---0-0-(0)-0-2-|


  G            B  A            G A G F#
  E +E  E E Q   E e   +e  q  E E E E E
|-------------------|------------------|
|-------------------|------------------|
|-------------------|------------------|
|-3-(3)---3-3--/7-5-|-(5)-5--5-3-5-3-2-|


  E                                  F#
  Q  E E E +E  E E   E E E E E +E  E E
|------------------|-------------------|
|------------------|-------------------|
|------------------|-------------------|
|-0----0-0-(0)---0-|---0---0-0-(0)-0-2-|


  G         B  A G A            G A G F#
  E +E  E E  E E E e   +e  q  E E E E E
|--------------------|--------------------||
|--------------------|-------------------o||
|--------------------|-------------------o||
|-3-(3)---3-/7-5-3-5-|-(5)-5--5-3-5-3-2---||


  E                                             D
  W          +W           +W           +H.       Q
|----------|------------|------------|----------------|
|----------|------------|------------|----------------|
|----------|------------|------------|----------------|
|-0--------|-(0)--------|-(0)--------|-(0)------10\---|


   Out-Chorus
    B                               D           E
    Q  E E Q  E E   E E E E Q  Q    Q  E E Q  E E   E E E E Q  E E  4x
||----------------|---------------|---------------|-----------------||
||o---------------|---------------|---------------|----------------o||
||o-2----2-2----2-|---2---2-2-----|-5----5-5----7-|---7---7-7------o||
||----------------|---------------|---------------|-----------------||


Duration Legend
---------------
W - whole; H - half; Q - quarter; E - 8th; S - 16th; T - 32nd; X - 64th; a - acciaccatura
+ - note tied to previous; . - note dotted; .. - note double dotted
Uncapitalized letters represent notes that are staccato (1/2 duration)
Irregular groupings are notated above the duration line
Duration letters will always appear directly above the note/fret number it represents the
duration for.  Duration letters with no fret number below them represent rests.  Multi-
bar rests are notated in the form Wxn, where n is the number of bars to rest for.  Low
melody durations appear below the staff

Tablature Legend
----------------
 h   - hammer-on
 p   - pull-off
 b   - bend
 pb  - pre-bend
 r   - bend release (if no number after the r, then release immediately)
 /\  - slide into or out of (from/to "nowhere")
 s   - legato slide
 S   - shift slide
  - natural harmonic
[n]  - artificial harmonic
n(n) - tapped harmonic
 ~   - vibrato
 tr  - trill
 T   - tap
 TP  - trem. picking
 PM  - palm muting
\n/  - tremolo bar dip; n = amount to dip
 \n  - tremolo bar down
 n/  - tremolo bar up
/n\  - tremolo bar inverted dip
 =   - hold bend; also acts as connecting device for hammers/pulls
 <>  - volume swell (louder/softer)
 x   - on rhythm slash represents muted slash
 o   - on rhythm slash represents single note slash

Misc Legend
-----------
 |  - bar
||  - double bar
||o - repeat start
o|| - repeat end
*|  - double bar (ending)
 :  - bar (freetime)
 $  - Segno
 &  - Coda
Tempo markers -  = BPM(8/16=s8/s16), where s8 = swing 8ths, s16 = swing 16ths
comments
We did not receive enough feedback on this tab! Please rate:
print report bad tab
1 2 3 4 5
I want to post or [tab]
guest
You may want to rate the tab now too:
select rating
Please do not post tabs as comments. Select "correction" instead!