Oops, an error
Loading. Please wait.
We have an official Funeral Of Hearts tab made by UG professional guitarists. Check out the tab »
×
by HIM
2,504 views 1 this week
no commentswrite comment
1 2 3 4 5
2 more votes to show rating
add to favorites
×
Save as Personal and add changes to this tab that will be seen only by you. Learn more ›
×
You can save this tab as Personal to edit and correct it or add notes. All changes will be seen only by you. Learn more »
launch autoscroll
font size
0
reset
how to read this tab
guitar tuner
edit
Autoscroll
slow
fast
+/-
esc
set tempo
stop
Author
Difficulty
|-14--14-14-14-|-12---12--12--12-|-17---17--17--17-|-19-19-19--19-19-17-16-|
|-14--14-14-14-|-12---12--12--12-|-17---17--17--17-|-17-17-17--17-17-17-16-|
|-----------------|--------------|-----------------|-----------------------|
|-----------------|--------------|-----------------|-----------------------|
|-----------------|--------------|-----------------|-----------------------|
|-----------------|--------------|-----------------|-----------------------|


  F#m               C#m               D                 A         E/Ab
   |  | |   |   |    |  | |   |   |    |  | |   |   |    |  |  | | |  |  |  |
   /  / /   /   /    /  / /   /   /    /  / /   /   /    /  /  / / /  /  /  /

|-14--14-14-14-|-12--12--12--12-|-17---17--17--17-|-19-19-19--19-19-17-16--|
|-14--14-14-14-|-12--12--12--12-|-17---17--17--17-|-17-17-17--17-17-17-16--|
|-----------------|-------------|-----------------|------------------------|
|-----------------|-------------|-----------------|------------------------|
|-----------------|-------------|-----------------|------------------------|
|-----------------|-------------|-----------------|------------------------|


 Pre-Verse
  F#m                   C#m
   |   |  |    |    |    |   |  |    |    |
   /   /  /    /    /    /   /  /    /    /

  Gtr II
|---------------------|---------------------|
|---------------------|---------------------|
|---------------------|---------------------|
|--4-4-4--4-4--4-4--4-|--6-6-6--6-6--6-6--6-|
|--4-4-4--4-4--4-4--4-|--4-4-4--4-4--4-4--4-|
|--2-2-2--2-2--2-2--2-|--4-4-4--4-4--4-4--4-|
|
| Gtr III
|-14-----14---14---14-|-12-----12---12---12-|
|-14-----14---14---14-|-12-----12---12---12-|
|---------------------|---------------------|
|---------------------|---------------------|
|---------------------|---------------------|
|---------------------|---------------------|


  D                     A          E
   |   |  |    |    |    |  |  | |  |  |  |  |
   /   /  /    /    /    /  /  / /  /  /  /  /

|---------------------|-------------------------|
|---------------------|-------------------------|
|---------------------|-------------------------|
|--7-7-7--7-7--7-7--7-|--7--7--7-7--9--9--9--9--|
|--5-5-5--5-5--5-5--5-|--7--7--7-7--7--7--7--7--|
|--5-5-5--5-5--5-5--5-|--5--5--5-5--7--7--7--7--|
|
|-17-----17---17---17-|-19-19-19---19-19-17-16--|
|-17-----17---17---17-|-17-17-17---17-17-17-16--|
|---------------------|-------------------------|
|---------------------|-------------------------|
|---------------------|-------------------------|
|---------------------|-------------------------|


  F#m                   C#m
   |   |  |    |    |    |   |  |    |    |
   /   /  /    /    /    /   /  /    /    /

|---------------------|---------------------|
|---------------------|---------------------|
|---------------------|---------------------|
|--4-4-4--4-4--4-4--4-|--6-6-6--6-6--6-6--6-|
|--4-4-4--4-4--4-4--4-|--4-4-4--4-4--4-4--4-|
|--2-2-2--2-2--2-2--2-|--4-4-4--4-4--4-4--4-|
|
|-14-----14---14---14-|-12-----12---12---12-|
|-14-----14---14---14-|-12-----12---12---12-|
|---------------------|---------------------|
|---------------------|---------------------|
|---------------------|---------------------|
|---------------------|---------------------|


  D                     A          E/Ab
   |   |  |    |    |    |  |  | |  |  |  |  |
   /   /  /    /    /    /  /  / /  /  /  /  /

|---------------------|-------------------------|
|---------------------|-------------------------|
|---------------------|-------------------------|
|--7-7-7--7-7--7-7--7-|--7--7--7-7--6--6--6--6--|
|--5-5-5--5-5--5-5--5-|--7--7--7-7--7--7--7--7--|
|--5-5-5--5-5--5-5--5-|--5--5--5-5--4--4--4--4--|
|
|-17-----17---17---17-|-19-19-19---19-19-17-16--|
|-17-----17---17---17-|-17-17-17---17-17-17-16--|
|---------------------|-------------------------|
|---------------------|-------------------------|
|---------------------|-------------------------|
|---------------------|-------------------------|


  F#5           (D5)
                 ~~
|-------------|-------||
|-------------|-------||
|-------------|-------||
|-4-----------|-------||
|-4-----------|-------||
|-2------(2)s=|=10----||


   Verse
    $
    F#m               Eopen
    Gtr I
    |   | |   |   |   |   | |   |   |
    /   / /   /   /   /   / /   /   /

    PM---------------------------------
||------------------|-----------------|
||o-----------------|-----------------|
||------------------|-----------------|
||------------------|-----------------|
||o-4-4-4-4-4-4-4-4-|-2-2-2-2-2-2-2-2-|
||--2-2-2-2-2-2-2-2-|-0-0-0-0-0-0-0-0-|


  Aopen             Bm                F#m
  |   | |   |   |   |   | |   |   |   |   | |   |   |
  /   / /   /   /   /   / /   /   /   /   / /   /   /

 ---------------------------------------------------|
|-----------------|-----------------|------------------|
|-----------------|-----------------|------------------|
|-----------------|-----------------|------------------|
|-----------------|-----------------|------------------|
|-7-7-7-7-7-7-7-7-|-9-9-9-9-9-9-9-9-|-4-4-4-4-4-4-4-4--|
|-5-5-5-5-5-5-5-5-|-7-7-7-7-7-7-7-7-|-2-2-2-2-2-2-2-2--|


                   1.
  Eopen             F#m
  |   | |   |   |   |   | |   |   |
  /   / /   /   /   /   / /   /   /

  PM---------------------------------
|-----------------|-----------------|
|-----------------|-----------------|
|-----------------|-----------------|
|-----------------|-----------------|
|-2-2-2-2-2-2-2-2-|-4-4-4-4-4-4-4-4-|
|-0-0-0-0-0-0-0-0-|-2-2-2-2-2-2-2-2-|
|
|   Gtr V
|-----------------|-----------------|
|-----------------|-----------------|
|-----------------|-------2---------|
|-----------------|-----4-----4-----|
|-----------------|---4-------------|
|-----------------|-2---------------|


   |   | |   |    |
   /   / /   /    /

                         <
 --------|
|---------------------||----------|---------------||
|--------------------o||----------|---------------||
|----------------[2]--||----------|--4-4---6-6----||
|----------4---4-(4)--||-4--------|--4-4---6-6----||
|--4-4-4-4---4-------o||-4--------|--2-2---4-4----||
|--2-2-2-2------------||-2--------|---------------||
|
|---------------------||----------|---------------||
|-^7-----------------o||----------|---------------||
|-^7------------------||----------|---------------||
|---------------------||----------|---------------||
|--------------------o||----------|---------------||
|---------------------||----------|---------------||


   Chorus
    F#m                   C#m
     |   |  |    |    |    |   |  |    |    |
     /   /  /    /    /    /   /  /    /    /

||----------------------|---------------------|
||o---------------------|---------------------|
||----------------------|---------------------|
||---4-4-4--4-4--4-4--4-|--6-6-6--6-6--6-6--6-|
||o--4-4-4--4-4--4-4--4-|--4-4-4--4-4--4-4--4-|
||---2-2-2--2-2--2-2--2-|--4-4-4--4-4--4-4--4-|
|
|   Gtr III
||--14-----14---14---14-|-12-----12---12---12-|
||o-14-----14---14---14-|-12-----12---12---12-|
||----------------------|---------------------|
||----------------------|---------------------|
||o---------------------|---------------------|
||----------------------|---------------------|


  D                     A          E
   |   |  |    |    |    |  |  | |  |  |  |  |
   /   /  /    /    /    /  /  / /  /  /  /  /

|---------------------|------------------------|
|---------------------|------------------------|
|---------------------|------------------------|
|--7-7-7--7-7--7-7--7-|--7--7--7-7--9--9--9--9-|
|--5-5-5--5-5--5-5--5-|--7--7--7-7--7--7--7--7-|
|--5-5-5--5-5--5-5--5-|--5--5--5-5--7--7--7--7-|
|
|-17-----17---17---17-|-19-19-19---19-19-17-16-|
|-17-----17---17---17-|-17-17-17---17-17-17-16-|
|---------------------|------------------------|
|---------------------|------------------------|
|---------------------|------------------------|
|---------------------|------------------------|


  F#m                   C#m
   |   |  |    |    |    |   |  |    |    |
   /   /  /    /    /    /   /  /    /    /

|---------------------|---------------------|
|---------------------|---------------------|
|---------------------|---------------------|
|--4-4-4--4-4--4-4--4-|--6-6-6--6-6--6-6--6-|
|--4-4-4--4-4--4-4--4-|--4-4-4--4-4--4-4--4-|
|--2-2-2--2-2--2-2--2-|--4-4-4--4-4--4-4--4-|
|
|-14-----14---14---14-|-12-----12---12---12-|
|-14-----14---14---14-|-12-----12---12---12-|
|---------------------|---------------------|
|---------------------|---------------------|
|---------------------|---------------------|
|---------------------|---------------------|


  D                     A          E/Ab
   |   |  |    |    |    |  |  | |  |  |  |  |
   /   /  /    /    /    /  /  / /  /  /  /  /

|---------------------|--------------------------||
|---------------------|-------------------------o||
|---------------------|--------------------------||
|--7-7-7--7-7--7-7--7-|--7--7--7-7--6--6--6--6---||
|--5-5-5--5-5--5-5--5-|--7--7--7-7--7--7--7--7--o||
|--5-5-5--5-5--5-5--5-|--5--5--5-5--4--4--4--4---||
|
|-17-----17---17---17-|-19-19-19---19-19-17-16---||
|-17-----17---17---17-|-17-17-17---17-17-17-16--o||
|---------------------|--------------------------||
|---------------------|--------------------------||
|---------------------|-------------------------o||
|---------------------|--------------------------||


     D.S. al Coda       &
  F#5         (D5)          B5     C#5
               ~~
|-----------|-----------||--------------||
|-----------|-----------||--------------||
|-----------|-----------||---4-4---6-6--||
|-4---------|-----------||---4-4---6-6--||
|-4---------|-----------||---2-2---4-4--||
|-2------2s=|=10--------||--------------||
|
|                          Gtr IV
|                            <
|-----------|-----------||--------------||
|-----------|-----------||--------------||
|-----------|-----------||--------------||
|-----------|-----------||--/7----------||
|-----------|-----------||--------------||
|-----------|-----------||--------------||


   Guitar Solo
    F#m             C#m             D             A      E
    Gtr I
     |   ||  |  |    |   ||  |  |   |  ||  |  |   | | | ||| |  |
     /   //  /  /    /   //  /  /   /  //  /  /   / / / /// /  /

    Gtr IV
                ~~~~~~~~
||----------------|---------------|-------------|---------------|
||o---------------|---------------|-------------|---------------|
||----------------|---------------|-----------4-|-4--/6----(6)--|
||--(7)---6--4----|-------4--6--6-|-6S==7-------|---------------|
||o-------------7-|-(7)-----------|--------7----|---------------|
||----------------|---------------|-------------|---------------|


  F#m           C#m             D            A    E/Ab
  |  ||  |  |    |   ||  |  |   |  ||  |  |  | |||||||
  /  //  /  /    /   //  /  /   /  //  /  /  / ///////

            ~~~~~~~~                ~        ~
|-------------|---------------|------------|-------------||
|-------------|---------------|------------|------------o||
|-------------|---------------|------------|-------------||
|-7---6--4----|-------4--6--6-|-6S==7------|----------7--||
|-----------7-|-(7)-----------|--------7S==|=4----------o||
|-------------|---------------|------------|-------------||


 Bridge
  D5/A       E5/B       F5/CN.C.
  Gtr II
|----------|----------|------------|-----------|
|----------|----------|------------|-----------|
|----------|----------|------------|-----------|
|----------|----------|------------|-----------|
|-5--------|-7--------|-8----------|-----------|
|-5--------|-7--------|-8---2--4---|-2----0----|


  D5/A       E5/B       F5/CN.C.
|----------|----------|------------|-----------|
|----------|----------|------------|-----------|
|----------|----------|------------|-----------|
|----------|----------|------------|-----------|
|-5--------|-7--------|-8----------|-----------|
|-5--------|-7--------|-8---2--4---|-5----4----|


  D5/A        B5    C#5    F#5                       N.C.
                           PM--------|
|----------|-------------|-----------------|-------------||
|----------|-------------|-----------------|-------------||
|----------|--4-4---6-6--|-----------------|-------------||
|-7--------|--4-4---6-6--|-4-4-4-4-4-4-4-4-|-4-4-4-4-----||
|-5--------|--2-2---4-4--|-4-4-4-4-4-4-4-4-|-4-4-4-4-----||
|-5--------|-------------|-2-2-2-2-2-2-2-2-|-2-2-2-2-----||


 Chorus
  N.C.                E
                      Gtr I
                       |       |   |       |       |
                       /       /   /       /       /

|---------|---------|---------------------------------|
|---------|---------|---------------------------------|
|---------|---------|---------------------------------|
|---------|---------|--2---2---2---2---2---2---2---2--|
|---------|---------|--2---2---2---2---2---2---2---2--|
|---------|---------|--0---0---0---0---0---0---0---0--|
|
|                     Gtr VI
|---------|---------|-(4)---------(4)---------(4)-----|
|---------|---------|-----(5)---------(5)---------(5)-|
|---------|---------|---------(4)---------(4)---------|
|---------|---------|---------------------------------|
|---------|---------|---------------------------------|
|---------|---------|---------------------------------|


  B               F#
   |   |   |   |   |   |   |   |
   /   /   /   /   /   /   /   /

|----------------------------------|
|----------------------------------|
|--4---4---4---4-------------------|
|--4---4---4---4---4---4---4---4---|
|--2---2---2---2---4---4---4---4---|
|------------------2---2---2---2---|
|
|---------(7)-------------(6)------|
|-----(7)-----(7)-----(7)-----(7)--|
|-(8)-------------(6)--------------|
|----------------------------------|
|----------------------------------|
|----------------------------------|


  G#m               D#m               E                 B       F#/Bb
  |   | |   |   |   |   | |   |   |   |   | |   |   |   | | | | | | | |
  /   / /   /   /   /   / /   /   /   /   / /   /   /   / / / / / / / /

|-----------------|-----------------|-----------------|------------------|
|-----------------|-----------------|-----------------|------------------|
|-----------------|-----------------|-----------------|------------------|
|-6-6-6-6-6-6-6-6-|-8-8-8-8-8-8-8-8-|-2-2-2-2-2-2-2-2-|-9-9-9-9-8-8-8-8--|
|-6-6-6-6-6-6-6-6-|-6-6-6-6-6-6-6-6-|-2-2-2-2-2-2-2-2-|-9-9-9-9-9-9-9-9--|
|-4-4-4-4-4-4-4-4-|-6-6-6-6-6-6-6-6-|-0-0-0-0-0-0-0-0-|-7-7-7-7-6-6-6-6--|
|
|-7-----7-----7---|-6-----6-----6---|-4-----4-----4---|-----7-------6----|
|---9-----9-----9-|---7-----7-----7-|---5-----5-----5-|---7---7---7---7--|
|-----8-----8-----|-----8-----8-----|-----4-----4-----|-8-------6--------|
|-----------------|-----------------|-----------------|------------------|
|-----------------|-----------------|-----------------|------------------|
|-----------------|-----------------|-----------------|------------------|


  G#m               D#m               E                 B       F#
  |   | |   |   |   |   | |   |   |   |   | |   |   |   | | | | | | | |
  /   / /   /   /   /   / /   /   /   /   / /   /   /   / / / / / / / /

|-----------------|-----------------|-----------------|------------------|
|-----------------|-----------------|-----------------|------------------|
|-----------------|-----------------|-----------------|------------------|
|-6-6-6-6-6-6-6-6-|-8-8-8-8-8-8-8-8-|-2-2-2-2-2-2-2-2-|-9-9-9-9-4-4-4-4--|
|-6-6-6-6-6-6-6-6-|-6-6-6-6-6-6-6-6-|-2-2-2-2-2-2-2-2-|-9-9-9-9-4-4-4-4--|
|-4-4-4-4-4-4-4-4-|-6-6-6-6-6-6-6-6-|-0-0-0-0-0-0-0-0-|-7-7-7-7-2-2-2-2--|
|
|-7-----7-----7---|-6-----6-----6---|-4-----4-----4---|-----7-------6----|
|---9-----9-----9-|---7-----7-----7-|---5-----5-----5-|---7---7---7---7--|
|-----8-----8-----|-----8-----8-----|-----4-----4-----|-8-------6--------|
|-----------------|-----------------|-----------------|------------------|
|-----------------|-----------------|-----------------|------------------|
|-----------------|-----------------|-----------------|------------------|


  G#m               D#m               E                 B       F#/Bb
  |   | |   |   |   |   | |   |   |   |   | |   |   |   | | | | | | | |
  /   / /   /   /   /   / /   /   /   /   / /   /   /   / / / / / / / /

|-----------------|-----------------|-----------------|------------------|
|-----------------|-----------------|-----------------|------------------|
|-----------------|-----------------|-----------------|------------------|
|-6-6-6-6-6-6-6-6-|-8-8-8-8-8-8-8-8-|-2-2-2-2-2-2-2-2-|-9-9-9-9-8-8-8-8--|
|-6-6-6-6-6-6-6-6-|-6-6-6-6-6-6-6-6-|-2-2-2-2-2-2-2-2-|-9-9-9-9-9-9-9-9--|
|-4-4-4-4-4-4-4-4-|-6-6-6-6-6-6-6-6-|-0-0-0-0-0-0-0-0-|-7-7-7-7-6-6-6-6--|
|
|-7-----7-----7---|-6-----6-----6---|-4-----4-----4---|-----7-------6----|
|---9-----9-----9-|---7-----7-----7-|---5-----5-----5-|---7---7---7---7--|
|-----8-----8-----|-----8-----8-----|-----4-----4-----|-8-------6--------|
|-----------------|-----------------|-----------------|------------------|
|-----------------|-----------------|-----------------|------------------|
|-----------------|-----------------|-----------------|------------------|


 Outro
  G#m                   D#m
   |   |  |    |    |    |   |  |    |    |
   /   /  /    /    /    /   /  /    /    /

  Gtr III
|-16-----16---16---16-|-14-----14---14---14-|
|-16-----16---16---16-|-14-----14---14---14-|
|---------------------|---------------------|
|---------------------|---------------------|
|---------------------|---------------------|
|---------------------|---------------------|
|
|--7------7------7----|--6------6------6----|
|----9------9-------9-|----7------7-------7-|
|------8-------8------|------8-------8------|
|---------------------|---------------------|
|---------------------|---------------------|
|---------------------|---------------------|


  E                     B          F#
   |   |  |    |    |    |  | |  |  |  |  |  |
   /   /  /    /    /    /  / /  /  /  /  /  /

|-19-----19---19---19-|-21-21---21-21-21-19-18--|
|-19-----19---19---19-|-19-19---19-19-19-19-18--|
|---------------------|-------------------------|
|---------------------|-------------------------|
|---------------------|-------------------------|
|---------------------|-------------------------|
|
|--4------4------4----|-------7-----------6-----|
|----5------5-------5-|-----7----7-----7-----7--|
|------4-------4------|--8----------6-----------|
|---------------------|-------------------------|
|---------------------|-------------------------|
|---------------------|-------------------------|


  G#m                   D#m
   |   |  |    |    |    |   |  |    |    |
   /   /  /    /    /    /   /  /    /    /

|-16-----16---16---16-|-14-----14---14---14-|
|-16-----16---16---16-|-14-----14---14---14-|
|---------------------|---------------------|
|---------------------|---------------------|
|---------------------|---------------------|
|---------------------|---------------------|
|
|--7------7------7----|--6------6------6----|
|----9------9-------9-|----7------7-------7-|
|------8-------8------|------8-------8------|
|---------------------|---------------------|
|---------------------|---------------------|
|---------------------|---------------------|


  E                     B          F#/Bb
   |   |  |    |    |    |  | |  |  |  |  |  |
   /   /  /    /    /    /  / /  /  /  /  /  /

|-19-----19---19---19-|-21-21---21-21-21-19-18--|
|-19-----19---19---19-|-19-19---19-19-19-19-18--|
|---------------------|-------------------------|
|---------------------|-------------------------|
|---------------------|-------------------------|
|---------------------|-------------------------|
|
|--4------4------4----|-------7-----------6-----|
|----5------5-------5-|-----7----7-----7-----7--|
|------4-------4------|--8----------6-----------|
|---------------------|-------------------------|
|---------------------|-------------------------|
|---------------------|-------------------------|


  G#m              E
|-^16------------|-----------|--------*|
|-^16------------|-----------|--------*|
|----------------|-----------|--------*|
|----------------|-----------|--------*|
|----------------|-----------|--------*|
|----------------|-----------|--------*|
|
| Gtr V
|                   >
|----------------|-----------|--------*|
|----------------|-^9--------|-(9)----*|
|---------4------|-^9--------|-(9)----*|
|-------6----6---|-----------|--------*|
|-----6----------|-----------|--------*|
|---4------------|-----------|--------*|




----------------------------------------------------------------------------


Tablature Legend
----------------
 h   - hammer-on
 p   - pull-off
 b   - bend
 pb  - pre-bend
 r   - bend release (if no number after the r, then release immediately)
 /\  - slide into or out of (from/to "nowhere")
 s   - legato slide
 S   - shift slide
 - natural harmonic
[n]  - artificial harmonic
n(n) - tapped harmonic
 ~   - vibrato
 tr  - trill
 T   - tap
 TP  - trem. picking
 PM  - palm muting
\n/  - tremolo bar dip; n = amount to dip
 \n  - tremolo bar down
 n/  - tremolo bar up
/n\  - tremolo bar inverted dip
 =   - hold bend; also acts as connecting device for hammers/pulls
 <> - volume swell (louder/softer)
 x   - on rhythm slash represents muted slash
 o   - on rhythm slash represents single note slash

Misc Legend
-----------
 |  - bar
||  - double bar
||o - repeat start
o|| - repeat end
*|  - double bar (ending)
 :  - bar (freetime)
 $  - Segno
 &  - Coda
Tempo markers -  = BPM(8/16=s8/s16), where s8 = swing 8ths, s16 = swing 16ths


            
            
Suggest correction
Creating personal tab
Creating personal tab
You can edit any tab online and save it as your Personal.

You can edit, replace or remove any tab part or add personal notes – all changes will be seen only by you.

Personal tabs can be accessed anytime from any device, even offline.
Learn more »
Give kudos to tab author, rate the tab!
1 2 3 4 5
comments
print report bad tab
guest
You may want to rate the tab now too:
select rating
Wanna post a correction for this tab? Suggest correction