Oops, an error
Loading. Please wait.

Gone With The Sin Bass Tab

version 2
version 2

Whole song

Interactive

by HIM
1,143 views 1 this week
no commentswrite comment
1 2 3 4 5
please rate
add to favorites
launch autoscroll
font size
0
reset
guitar tuner
Tab Pro tools
  • play this tab
  • loop segment
  • change instrument
  • show fretboard
  • metronome
×
Best way to learn
"Gone With The Sin"
Autoscroll
slow
fast
+/-
esc
set tempo
stop
Contributor
#----------------------------------PLEASE NOTE---------------------------------#
#This file is the author's own work and represents their interpretation of the #
#song. You may only use this file for private study, scholarship, or research. #
#------------------------------------------------------------------------------##

                          GONE WITH THE SIN (Bassline)
                              As recorded by H.I.M.
                    (From the 2000 Album RAZORBLADE ROMANCE)

Words by Ville Valo

Music by H.I.M.
Arranged by H.I.M.
Transcribed by vitaha_z

Gtr I (B E A D) - 'Untitled'

 Intro - Verse
  Q=92
 4/4
  Gtr I
                ~~~~~~~~~~~~~~~
  Wx15          W          +W
|-------------|----------|--------||
|-------------|----------|--------||
|-------------|-1--------|-(1)----||
|-------------|----------|--------||


   Chorus
    $
    E E E E E E E E   E E E E E E E E   E E E E E E E E   E E E E E E E E   3x
||------------------|-----------------|-----------------|-------------------||
||o-----------------|-----------------|-----------------|-3-3-3-3----------o||
||o-5-5-5-5-5-5-5-5-|-3-3-3-3-3-3-3-3-|-1-1-1-1-1-1-1-1-|---------3-3-3-3--o||
||------------------|-----------------|-----------------|-------------------||


                                              To Coda
                                      ~~~~~~~~~~~~~~~
  E E E E E E E E   E E E E E E E E   W          +W
|-----------------|-----------------|----------|---------||
|-----------------|-----------------|----------|---------||
|-5-5-5-5-5-5-5-5-|-3-3-3-3-3-3-3-3-|-1--------|-(1)-----||
|-----------------|-----------------|----------|---------||


   Verse
    E E E E E E E E   E E E E E E E E   E E E E E E E E   E E E E E E E E   3x
||------------------|-----------------|-----------------|-------------------||
||o-----------------|-----------------|-----------------|------------------o||
||o-5-5-5-5-5-----5-|-3-3-3-3-3-----3-|-5-5-5-5-5-----5-|-3-3-3-3-3-----3--o||
||------------3-5---|-----------3-5---|-----------3-5---|-----------3-5-----||


                                         D.S. al Coda
                                      ~~~~~~~~~~~~~~~
  E E E E E E E E   E E E E E E E E   W          +W
|-----------------|-----------------|----------|---------||
|-----------------|-----------------|----------|---------||
|-5-5-5-5-5-----5-|-3-3-3-3-3-----3-|-1--------|-(1)-----||
|-----------3-5---|-----------3-5---|----------|---------||


   Guitar Solo
    &
    E E E E E E E E   E E E E E E E E   E E E E E E E E   E E E E E E E E   3x
||------------------|-----------------|-----------------|-------------------||
||o-----------------|-----------------|-----------------|-3-3-3-3----------o||
||o-5-5-5-5-5-5-5-5-|-3-3-3-3-3-3-3-3-|-1-1-1-1-1-1-1-1-|---------3-3-3-3--o||
||------------------|-----------------|-----------------|-------------------||


                                      ~
  E E E E E E E E   E E E E E E E E   W          Q.   Q.   Q
|-----------------|-----------------|----------|---------------||
|-----------------|-----------------|----------|---------------||
|-5-5-5-5-5-5-5-5-|-3-3-3-3-3-3-3-3-|----------|---------------||
|-----------------|-----------------|-6--------|-6\---6\---6\--||


   Out-Chorus
    E E E E E E E E   E E E E E E E E   E E E E E E E E   E E E E E E E E   3x
||------------------|-----------------|-----------------|-------------------||
||o-----------------|-----------------|-----------------|-5-5-5-5----------o||
||o-7-7-7-7-7-7-7-7-|-5-5-5-5-5-5-5-5-|-3-3-3-3-3-3-3-3-|---------5-5-5-5--o||
||------------------|-----------------|-----------------|-------------------||


                                      <
                                      ~~~~~~~~~~~~~~~
  E E E E E E E E   E E E E E E E E   W          +W
|-----------------|-----------------|----------|--------|
|-----------------|-----------------|----------|--------|
|-7-7-7-7-7-7-7-7-|-5-5-5-5-5-5-5-5-|-3--------|-(3)----|
|-----------------|-----------------|----------|--------|


   ~~~~~~~~~~~~~~~~~~~~~~~~~~~~~
  +W           +W           +W
|------------|------------|--------*|
|------------|------------|--------*|
|-(3)--------|-(3)--------|-(3)----*|
|------------|------------|--------*|


Duration Legend
---------------
W - whole; H - half; Q - quarter; E - 8th; S - 16th; T - 32nd; X - 64th; a - acciaccatura
+ - note tied to previous; . - note dotted; .. - note double dotted
Uncapitalized letters represent notes that are staccato (1/2 duration)
Irregular groupings are notated above the duration line
Duration letters will always appear directly above the note/fret number it represents the
duration for.  Duration letters with no fret number below them represent rests.  Multi-
bar rests are notated in the form Wxn, where n is the number of bars to rest for.  Low
melody durations appear below the staff

Tablature Legend
----------------
 h   - hammer-on
 p   - pull-off
 b   - bend
 pb  - pre-bend
 r   - bend release (if no number after the r, then release immediately)
 /\  - slide into or out of (from/to "nowhere")
 s   - legato slide
 S   - shift slide
  - natural harmonic
[n]  - artificial harmonic
n(n) - tapped harmonic
 ~   - vibrato
 tr  - trill
 T   - tap
 TP  - trem. picking
 PM  - palm muting
\n/  - tremolo bar dip; n = amount to dip
 \n  - tremolo bar down
 n/  - tremolo bar up
/n\  - tremolo bar inverted dip
 =   - hold bend; also acts as connecting device for hammers/pulls
 <>  - volume swell (louder/softer)
 x   - on rhythm slash represents muted slash
 o   - on rhythm slash represents single note slash

Misc Legend
-----------
 |  - bar
||  - double bar
||o - repeat start
o|| - repeat end
*|  - double bar (ending)
 :  - bar (freetime)
 $  - Segno
 &  - Coda
Tempo markers -  = BPM(8/16=s8/s16), where s8 = swing 8ths, s16 = swing 16ths
comments
We did not receive enough feedback on this tab! Please rate:
print report bad tab
1 2 3 4 5
I want to post or [tab]
guest
You may want to rate the tab now too:
select rating
Please do not post tabs as comments. Select "correction" instead!