Oops, an error
Loading. Please wait.

Heartake Every Moment Bass Tab

by HIM
253 views 1 this week
2 commentsread comments
1 2 3 4 5
please rate
add to favorites
launch autoscroll
font size
0
reset
guitar tuner
Autoscroll
slow
fast
+/-
esc
set tempo
stop
Help us to improve Ultimate-Guitar.com Take our survey!
×
Author
Difficulty
novice
It's a pretty easy song. Just listen and you'll figure it out.

~(E,A,D,G)~


Intro(0:00)
|-------|
|-------|
|---4~--|
|-------|


Intro/Chorus(0:06)
|-------|
|-------|
|--7-5--|
|-------|

|--------------------------|
|--------------------------|
|---3--55-5/77-777---------|
|--------------------------| x2

|--------------------------|
|--------------------------|
|---3--55-223-6~~----------|
|--------------------------|

Verse(0:23)
|-------------------------|
|-------------------------|
|-------------------------|
|--1111-3333/99999999-----| x3

|-------------------------|
|-------------------------|
|-------------------------|
|---------11(x16)---------|

|-------------------------|
|-------------------------|
|-------------------------|
|--1111-3333/99999999-----| x3

|-------------------------|
|-------------------------|
|-------------------------|
|----------11~------------|

Intro/Chorus(0:54)
|-------|
|-------|
|--7-5--|
|-------|

|--------------------------|
|--------------------------|
|---3-55-5/77--------------|
|--------------------------|

|--------------------------|
|--------------------------|
|---3-5-5/77~--------------|
|--------------------------|

|--------------------------|
|--------------------------|
|---3-5-223-6~-------------|
|--------------------------|

(1:10)
|-------|
|-------|
|--7-5--|
|-------|

|--------------------------|
|--------------------------|
|---3-55-5/77--------------|
|--------------------------|

|--------------------------|
|--------------------------|
|---3-5-5/77~--------------|
|--------------------------|

|--------------------------|
|--------------------------|
|---3-5-223-6~-------------|
|--------------------------|

Verse(1:27)
|--------|
|--------|
|--------|
|--1~~~--|

(1:35)
|-------------------------|
|-------------------------|
|-------------------------|
|--1111-3333/99999999-----| x3

|-------------------------|
|-------------------------|
|-------------------------|
|----------11~------------|

Intro/Chorus(1:50)
|-------|
|-------|
|--7-5--|
|-------|

|--------------------------|
|--------------------------|
|---3-55-5/77--------------|
|--------------------------|

|--------------------------|
|--------------------------|
|---3-5-5/77~--------------|
|--------------------------|

|--------------------------|
|--------------------------|
|---3-5-223-6~-------------|
|--------------------------|

(2:06)
|-------|
|-------|
|--7-5--|
|-------|

|--------------------------|
|--------------------------|
|---3-55-5/77--------------|
|--------------------------|

|--------------------------|
|--------------------------|
|---3-5-5/77~--------------|
|--------------------------|

|--------------------------|
|--------------------------|
|---3-5-223-6~-------------|
|--------------------------|

(2:23)
Guitar Solo
|--------------------------|
|--------------------------|
|---3-55-5/77~-------------|
|--------------------------| x2

|--------------------------|
|--------------------------|
|---3-55-223-5~------------|
|--------------------------|

(2:39)
Bridge
|------------------------------------------------------------|
|------------------------------------------------------------|
|------------------------------------------------------------|
|--4444444444444444-6666666666666666-8888888888888888--------|

(cont.)
|------------------------------------------------------------|
|------------------------------------------------------------|
|------------------------------------------------------------|
|--6666666666666666-4444444444444444-6666666666666666--------| x1

Intro/Chorus(3:03)
|-------|
|-------|
|--7-5--|
|-------|

|--------------------------|
|--------------------------|
|---3-55-5/77--------------|
|--------------------------|

|--------------------------|
|--------------------------|
|---3-5-5/77~--------------|
|--------------------------|

|--------------------------|
|--------------------------|
|---3-5-223-6~-------------|
|--------------------------|


(3:18)
|-------|
|-------|
|--7-5--|
|-------|

|--------------------------|
|--------------------------|
|---3-55-5/77--------------|
|--------------------------|

|--------------------------|
|--------------------------|
|---3-5-5/77~--------------|
|--------------------------|

|--------------------------|
|--------------------------|
|---3-5-223-6~-------------|
|--------------------------|

End(3:35)
|----------|
|----------|
|----------|
|--1~~~~~--|
Suggest correction
What's this?
You can suggest a correction to this tab. Community and Mods will review your correction and vote to approve or reject it.
comments
We did not receive enough feedback on this tab! Please rate:
print report bad tab
1 2 3 4 5
2 comments total.
0 reply
chads_in_hi_fi 175 wrote on January 15 2007, 02:06 pm

why did you take the bridge from my tab?

0 reply
chads_in_hi_fi 175 wrote on January 15 2007, 02:10 pm

another thing, you spelled it wrong..its Heartache Every Moment. and it sounds nothing like the song

guest
You may want to rate the tab now too:
select rating
Please do not post tabs as comments. Select "correction" instead!