Oops, an error
Loading. Please wait.

I Love You Prelude To Tragedy Bass Tab

version 1
version 1

Whole song

Interactive

by HIM
714 views 1 this week
no commentswrite comment
1 2 3 4 5
please rate
add to favorites
launch autoscroll
font size
0
reset
guitar tuner
Autoscroll
slow
fast
+/-
esc
set tempo
stop
Help us to improve Ultimate-Guitar.com Take our survey!
×
#----------------------------------PLEASE NOTE---------------------------------#
#This file is the author's own work and represents their interpretation of the #
#song. You may only use this file for private study, scholarship, or research. #
#------------------------------------------------------------------------------##

                   I LOVE YOU (PRELUDE TO TRAGEDY) (Bassline)
                               As recorded by HIM
                    (From the 2000 Album RAZORBLADE ROMANCE)

Words by Ville Valo

Music by HIM
Arranged by HIM
Transcribed by CUBErt

Gtr I (E A D G) - 'Untitled'

 Intro
  Q=172
 4/4
  Gtr I
  Wx6          W          W
|------------|----------|------|
|------------|----------|------|
|------------|----------|------|
|------------|----------|------|


 4/4
  Q  Q  E E Q    E E E E E E E E   E E E E E E Q
|--------------|-----------------|-----------------|
|--------------|-----------------|-----------------|
|--------------|-----------------|-----------------|
|---------3-5--|-0-0-5-0-3-5-0-8-|-0-7-0-5-0-3-5---|


                                       1.
    E E E E E E E E   E E E E E E Q    E E E E E E E E   E E E E E E Q
||------------------|----------------|-----------------|------------------||
||o-----------------|----------------|-----------------|-----------------o||
||o-----------------|----------------|-----------------|-----------------o||
||--0-0-5-0-3-5-0-8-|-0-7-0-5-0-3-5--|-0-0-5-0-3-5-0-8-|-0-7-0-5-0-3-5----||


   Verse
    2.
    E E E E E E E E   E E E E E E E E  3x
||------------------|------------------||
||o-----------------|-----------------o||
||o-----------------|-----------------o||
||--0-0-0-0-0-0-0-0-|-0-0-0-0-0-0-0-0--||


  E E E E E E E E   E E E E E E E E
|-----------------|-----------------|
|-----------------|-----------------|
|-----------------|-----------------|
|-3-3-3-3-3-3-3-3-|-2-2-2-2-2-2-2-2-|


    E E E E E E E E   E E E E E E E E  3x
||------------------|------------------||
||o-----------------|-----------------o||
||o-----------------|-----------------o||
||--0-0-0-0-0-0-0-0-|-0-0-0-0-0-0-0-0--||


  E E E E E E E E   E E E E E E E E
|-----------------|-----------------|
|-----------------|-----------------|
|-----------------|-----------------|
|-3-3-3-3-3-3-3-3-|-2-2-2-2-2-2-2-2-|


 Pre-Chorus
  E E E E E E E E   E E E E E E E E   E E E E E E E E   E E E E E E E E
|-----------------|-----------------|-----------------|-----------------|
|-----------------|-----------------|-----------------|-----------------|
|-----------------|-----------------|-----------------|-----------------|
|-0-0-0-0-0-0-0-0-|-0-0-0-0-0-0-0-0-|-3-3-3-3-3-3-3-3-|-2-2-2-2-2-2-2-2-|


  E E E E E E E E   E E E E E E E E   E E E E E E E E
|-----------------|-----------------|-----------------|
|-----------------|-----------------|-----------------|
|-----------------|-----------------|-----------------|
|-0-0-0-0-0-0-0-0-|-0-0-0-0-0-0-0-0-|-3-3-3-3-3-3-3-3-|


   E  E  E  E  E  E  E  E    E  E  E  E  E  E  E  e   W
|-------------------------|-------------------------|------|
|-------------------------|-------------------------|------|
|-------------------------|-------------------------|------|
|-10-10-10-10-10-10-10-10-|-10-10-10-10-10-10-10-10-|------|


   Chorus
    E E E E E E E E   E E E E E E E E   E E E E E E E E   E E E E E E E E
||------------------|-----------------|-----------------|------------------|
||o-----------------|-----------------|-----------------|------------------|
||o-----------------|-----------------|-----------------|------------------|
||--0-0-0-0-0-0-0-0-|-0-0-0-0-0-0-0-0-|-0-0-0-0-0-0-0-0-|-0-0-0-0-0-0-0-0--|


  E E E E E E E E   E E E E E E E E   E E E E E E E E   E E E E E E E E
|-----------------|-----------------|-----------------|------------------||
|-----------------|-----------------|-----------------|-----------------o||
|-----------------|-----------------|-----------------|-----------------o||
|-8-8-8-8-8-8-8-8-|-8-8-8-8-8-8-8-8-|-3-3-3-3-3-3-3-3-|-5-5-5-5-5-5-5-5--||


 Pre-Verse
  W          E E E E E E E E   E E E E E E Q
|----------|-----------------|----------------|
|----------|-----------------|----------------|
|----------|-----------------|----------------|
|----------|-0-0-5-0-3-5-0-8-|-0-7-0-5-0-3-5--|


                                       1.
    E E E E E E E E   E E E E E E Q    E E E E E E E E   E E E E E E Q
||------------------|----------------|-----------------|------------------||
||o-----------------|----------------|-----------------|-----------------o||
||o-----------------|----------------|-----------------|-----------------o||
||--0-0-5-0-3-5-0-8-|-0-7-0-5-0-3-5--|-0-0-5-0-3-5-0-8-|-0-7-0-5-0-3-5----||


   Verse
    2.
    E E E E E E E E   E E E E E E E E  3x
||------------------|------------------||
||o-----------------|-----------------o||
||o-----------------|-----------------o||
||--0-0-0-0-0-0-0-0-|-0-0-0-0-0-0-0-0--||


  E E E E E E E E   E E E E E E E E
|-----------------|-----------------|
|-----------------|-----------------|
|-----------------|-----------------|
|-3-3-3-3-3-3-3-3-|-2-2-2-2-2-2-2-2-|


    E E E E E E E E   E E E E E E E E  3x
||------------------|------------------||
||o-----------------|-----------------o||
||o-----------------|-----------------o||
||--0-0-0-0-0-0-0-0-|-0-0-0-0-0-0-0-0--||


  E E E E E E E E   E E E E E E E E
|-----------------|-----------------|
|-----------------|-----------------|
|-----------------|-----------------|
|-3-3-3-3-3-3-3-3-|-2-2-2-2-2-2-2-2-|


 Pre-Chorus
  E E E E E E E E   E E E E E E E E   E E E E E E E E   E E E E E E E E
|-----------------|-----------------|-----------------|-----------------|
|-----------------|-----------------|-----------------|-----------------|
|-----------------|-----------------|-----------------|-----------------|
|-0-0-0-0-0-0-0-0-|-0-0-0-0-0-0-0-0-|-3-3-3-3-3-3-3-3-|-2-2-2-2-2-2-2-2-|


  E E E E E E E E   E E E E E E E E   E E E E E E E E
|-----------------|-----------------|-----------------|
|-----------------|-----------------|-----------------|
|-----------------|-----------------|-----------------|
|-0-0-0-0-0-0-0-0-|-0-0-0-0-0-0-0-0-|-3-3-3-3-3-3-3-3-|


   E  E  E  E  E  E  E  E    E  E  E  E  E  E  E  e   W
|-------------------------|-------------------------|------|
|-------------------------|-------------------------|------|
|-------------------------|-------------------------|------|
|-10-10-10-10-10-10-10-10-|-10-10-10-10-10-10-10-10-|------|


   Chorus
    E E E E E E E E   E E E E E E E E   E E E E E E E E   E E E E E E E E
||------------------|-----------------|-----------------|------------------|
||o-----------------|-----------------|-----------------|------------------|
||o-----------------|-----------------|-----------------|------------------|
||--0-0-0-0-0-0-0-0-|-0-0-0-0-0-0-0-0-|-0-0-0-0-0-0-0-0-|-0-0-0-0-0-0-0-0--|


  E E E E E E E E   E E E E E E E E   E E E E E E E E   E E E E E E E E
|-----------------|-----------------|-----------------|------------------||
|-----------------|-----------------|-----------------|-----------------o||
|-----------------|-----------------|-----------------|-----------------o||
|-8-8-8-8-8-8-8-8-|-8-8-8-8-8-8-8-8-|-3-3-3-3-3-3-3-3-|-5-5-5-5-5-5-5-5--||


   Out-Chorus
    E E E E E E E E   E E E E E E Q    E E E E E E E E   E E E E E E Q    4x
||------------------|----------------|-----------------|------------------||
||o-----------------|----------------|-----------------|-----------------o||
||o-----------------|----------------|-----------------|-----------------o||
||--0-0-5-0-3-5-0-8-|-0-7-0-5-0-3-5--|-0-0-5-0-3-5-0-8-|-0-7-0-5-0-3-5----||


  Q=150
  E Q  +E   E Q  +E     W          W          W
|---------------------|----------|----------|------*|
|---------------------|----------|----------|------*|
|---------------------|----------|----------|------*|
|-0-0--(0)\-0-0--(0)\-|----------|----------|------*|


Duration Legend
---------------
W - whole; H - half; Q - quarter; E - 8th; S - 16th; T - 32nd; X - 64th; a - acciaccatura
+ - note tied to previous; . - note dotted; .. - note double dotted
Uncapitalized letters represent notes that are staccato (1/2 duration)
Irregular groupings are notated above the duration line
Duration letters will always appear directly above the note/fret number it represents the
duration for.  Duration letters with no fret number below them represent rests.  Multi-
bar rests are notated in the form Wxn, where n is the number of bars to rest for.  Low
melody durations appear below the staff

Tablature Legend
----------------
 h   - hammer-on
 p   - pull-off
 b   - bend
 pb  - pre-bend
 r   - bend release (if no number after the r, then release immediately)
 /\  - slide into or out of (from/to "nowhere")
 s   - legato slide
 S   - shift slide
  - natural harmonic
[n]  - artificial harmonic
n(n) - tapped harmonic
 ~   - vibrato
 tr  - trill
 T   - tap
 TP  - trem. picking
 PM  - palm muting
\n/  - tremolo bar dip; n = amount to dip
 \n  - tremolo bar down
 n/  - tremolo bar up
/n\  - tremolo bar inverted dip
 =   - hold bend; also acts as connecting device for hammers/pulls
 <>  - volume swell (louder/softer)
 x   - on rhythm slash represents muted slash
 o   - on rhythm slash represents single note slash

Misc Legend
-----------
 |  - bar
||  - double bar
||o - repeat start
o|| - repeat end
*|  - double bar (ending)
 :  - bar (freetime)
 $  - Segno
 &  - Coda
Tempo markers -  = BPM(8/16=s8/s16), where s8 = swing 8ths, s16 = swing 16ths
Suggest correction
Give kudos to tab author, rate the tab!
1 2 3 4 5
comments
print report bad tab
guest
You may want to rate the tab now too:
select rating
Please do not post tabs as comments. Select "correction" instead!