Oops, an error
Loading. Please wait.

Join Me Bass Tab

version 2
version 2

Whole song

Interactive

by HIM
1,109 views 3 this week
no commentswrite comment
1 2 3 4 5
please rate
add to favorites
launch autoscroll
font size
0
reset
guitar tuner
Tab Pro tools
  • play this tab
  • loop segment
  • change instrument
  • show fretboard
  • metronome
×
Best way to learn
"Join Me"
Autoscroll
slow
fast
+/-
esc
set tempo
stop
Contributor
Difficulty
novice
-------------------------------------------------------------------------------
			     Join Me - HIM
-------------------------------------------------------------------------------

Tabbed By : Danger_Dave	
e-mail: danger_dave32@hotmail.com

Tuning: B,E,A,D

INTRO

D|-----------------|--------------------|-----------------|-----------------|
A|-----------------|--------------------|-----------------|-----------------|
E|-------------2-2-|-0-0--0-0---0-0-0---|-----------------|--2h4-4-4--4-4-4-|
B|-----------------|--------------------|--0h2-2-2--2-2-2-|-----------------|

D|-----------------|--------------------|-----------------|-----------------|
A|-----------------|--------------------|-----------------|-----------------|
E|--2h4-4-4----2-2-|-0-0--0-0---0-0-0---|-----------------|--2h4-4-4--4-4-4-|
B|-----------------|--------------------|--0h2-2-2--2-2-2-|-----------------|

D|-----------------|-----------------|
A|-----------------|-----------------|
E|--2h4-4-4----2-2-|-0-0-----2-------|
B|-----------------|-----------------|

VERSE

D|-----------------|-----------------|-----------------|-----------------|
A|-----------------|-6-6-6-6-6-6-6-6-|-----------------|-6-6-6-6-6-6-6-6-|
E|-4-4-4-4-4-4-4-4-|-----------------|-4-4-4-4-4-4-4-4-|-----------------|
B|-----------------|-----------------|-----------------|-----------------|

D|-----------------|-----------------|-----------------|-----------------|
A|-----------------|-6-6-6-6-6-6-6-6-|-4-4-4-4-4-4-4-4-|-----------------|
E|-4-4-4-4-4-4-4-4-|-----------------|-----------------|-2--2--------2-2-|
B|-----------------|-----------------|-----------------|-----------------|

CHORUS

D|--------------------|-----------------|-----------------|-----------------|
A|--------------------|-----------------|-----------------|-----------------|
E|-0-0--0-0---0-0-0---|-----------------|--2h4-4-4--4-4-4-|--2h4-4-4----2-2-|
B|--------------------|--0h2-2-2--2-2-2-|-----------------|-----------------|

D|--------------------|-----------------|-----------------|-----------------|
A|--------------------|-----------------|-----------------|-----------------|
E|-0-0--0-0---0-0-0---|-----------------|--2h4-4-4--4-4-4-|--2h4-4-4----2-2-|
B|--------------------|--0h2-2-2--2-2-2-|-----------------|-----------------|

D|-----------------|
A|-----------------|
E|-0-0-----2-------|
B|-----------------|

VERSE

D|-----------------|-----------------|-----------------|-----------------|
A|-----------------|-6-6-6-6-6-6-6-6-|-----------------|-6-6-6-6-6-6-6-6-|
E|-4-4-4-4-4-4-4-4-|-----------------|-4-4-4-4-4-4-4-4-|-----------------|
B|-----------------|-----------------|-----------------|-----------------|

D|-----------------|-----------------|-----------------|-----------------|
A|-----------------|-6-6-6-6-6-6-6-6-|-4-4-4-4-4-4-4-4-|-----------------|
E|-4-4-4-4-4-4-4-4-|-----------------|-----------------|-2--2--------2-2-|
B|-----------------|-----------------|-----------------|-----------------|

CHORUS

D|--------------------|-----------------|-----------------|-----------------|
A|--------------------|-----------------|-----------------|-----------------|
E|-0-0--0-0---0-0-0---|-----------------|--2h4-4-4--4-4-4-|--2h4-4-4----2-2-|
B|--------------------|--0h2-2-2--2-2-2-|-----------------|-----------------|

D|--------------------|-----------------|-----------------|-----------------|
A|--------------------|-----------------|-----------------|-----------------|
E|-0-0--0-0---0-0-0---|-----------------|--2h4-4-4--4-4-4-|--2h4-4-4----2-2-|
B|--------------------|--0h2-2-2--2-2-2-|-----------------|-----------------|

D|-----------------|-----------------|
A|-----------------|-----------------|
E|-0-0-----2-------|-4--4--4--4--4-2-|
B|-----------------|-----------------|

BRIDGE

D|-----------------|-----------------|-----------------|-----------------|
A|-----------------|-----------------|-----------------|-----------------|
E|-0---------------|-----------------|-4---------------|-4---------------|
B|-----------------|-2---------------|-----------------|-----------------|

D|-----------------|-----------------|-----------------|-----------------|
A|-----------------|-----------------|-----------------|-----------------|
E|-0---------------|-----------------|-----------------|-------------2-2-|
B|-----------------|-2---------------|-----------------|-----------------|

CHORUS

D|--------------------|-----------------|-----------------|-----------------|
A|--------------------|-----------------|-----------------|-----------------|
E|-0-0--0-0---0-0-0---|-----------------|--2h4-4-4--4-4-4-|--4h6-6-6----6-6-|
B|--------------------|--0h2-2-2--2-2-2-|-----------------|-----------------|

D|--------------------|-----------------|-----------------|-----------------|
A|--------------------|-----------------|-----------------|-----------------|
E|-0-0--0-0---0-0-0---|-----------------|--2h4-4-4--4-4-4-|--4h6-6-6----6-6-|
B|--------------------|--0h2-2-2--2-2-2-|-----------------|-----------------|

D|--------------------|-----------------|-----------------|-----------------|
A|--------------------|-----------------|-----------------|-----------------|
E|-0-0--0-0---0-0-0---|-----------------|--2h4-4-4--4-4-4-|--4h6-6-6----6-6-|
B|--------------------|--0h2-2-2--2-2-2-|-----------------|-----------------|

D|-----------------|-----------------|
A|-----------------|-----------------|
E|-0-------2-------|-2-2-2-2---------|
B|-----------------|-----------------|




| /  slide up
| \  slide down
| h  hammer-on
| p  pull-off
| ~  vibrato
| +  harmonic
| x  Mute note
===============================================================================
comments
We did not receive enough feedback on this tab! Please rate:
print report bad tab
1 2 3 4 5
I want to post or [tab]
guest
You may want to rate the tab now too:
select rating
Please do not post tabs as comments. Select "correction" instead!