Oops, an error
Loading. Please wait.

Lose You Tonight Bass Tab

version 2
version 2

Whole song

Interactive

by HIM
247 views 1 this week
no commentswrite comment
1 2 3 4 5
please rate
add to favorites
launch autoscroll
font size
0
reset
guitar tuner
Autoscroll
slow
fast
+/-
esc
set tempo
stop
Help us to improve Ultimate-Guitar.com Take our survey!
×
Author
dandyhandy17 2,010
#----------------------------------PLEASE NOTE---------------------------------#
#This file is the author's own work and represents their interpretation of the #
#song. You may only use this file for private study, scholarship, or research. #
#------------------------------------------------------------------------------##

                           LOSE YOU TONIGHT (Bassline)
                              As recorded by H.I.M.
           (From the 2001 Album DEEP SHADOWS AND BRILLIANT HIGHLIGHTS)

Words by Ville Valo

Music by H.I.M.
Arranged by H.I.M.
Transcribed by vitaha_z

Gtr I (E A D G) - 'Bass'
Gtr II (E A D G) - 'String'

   Intro
    Q=144
   4/4
    Gtr I
    E +E  E Q  E E E   E +E  E Q  E E E
||-------------------|------------------|
||o------------------|------------------|
||o------------------|------------------|
||--4-(4)-2-4--2-4-2-|-4-(4)-2-4--2-4---|


  E +E  E Q  E E E   E +E  E Q  E E E
|------------------|-------------------||
|------------------|------------------o||
|------------------|------------------o||
|-4-(4)-2-4--2-4-2-|-4-(4)-2-4--2-4----||


    $
    E E E Q  E E E   E E E Q  E E E   E E E Q  E E E   E E E Q  E E E
||-----------------|----------------|----------------|------------------||
||o----------------|----------------|----------------|-----------------o||
||o----------------|----------------|----------------|-----------------o||
||--6-6-4-6--4-6-4-|-6-6-4-6--4-6---|-6-6-4-6--4-6-4-|-6-6-4-6--4-6-----||


   Verse
    E E E Q  E E E   E E E Q  E E E   E E E Q  E E E   E E E Q  E E E
||-----------------|----------------|----------------|------------------||
||o----------------|----------------|----------------|-----------------o||
||o----------------|----------------|----------------|-----------------o||
||--6-6-4-6--4-6-4-|-6-6-4-6--4-6---|-6-6-4-6--4-6-4-|-6-6-4-6--4-6-----||


   Chorus
                              D.S. al Coda
                              D.S. al Coda
    Q  Q  E E +E  E   +E  E E +E  +E  E E E
||------------------|-----------------------|
||o-----------------|-----------------------|
||o-----------------|-----------------------|
||--2--2--2-2-(2)-4-|-(4)-4-4-(4)-(4)-4-4-4-|


  Q  Q  E E +E  E   +E  E E +E  E E E E   4x
|-----------------|-----------------------||
|-----------------|----------------------o||
|-----------------|----------------------o||
|-1--1--1-1-(1)-2-|-(2)-2-2-(2)-2-2-2-2---||


   Guitar Solo
    &
    Gtr II
    W          +W           W          +W
||-----------|------------|----------|--------|
||o-1--------|-(1)--------|----------|--------|
||o----------|------------|-1--------|-(1)----|
||-----------|------------|----------|--------|


                                    1.             2.
  W          +W           W          +W             +H.      Q
|----------|------------|----------|-------------||--------------|
|----------|------------|----------|------------o||--------------|
|-4--------|-(4)--------|----------|------------o||--------------|
|----------|------------|-4--------|-(4)---------||-(4)----------|


   Chorus
    Gtr I
    Q  Q  E E +E  E   +E  E E +E  +E  E E E
||------------------|-----------------------|
||o-----------------|-----------------------|
||o-----------------|-----------------------|
||--2--2--2-2-(2)-4-|-(4)-4-4-(4)-(4)-4-4-4-|


  Q  Q  E E +E  E   +E  E +E  E E E E E   3x
|-----------------|-----------------------||
|-----------------|----------------------o||
|-----------------|----------------------o||
|-1--1--1-1-(1)-2-|-(2)-2-(2)-2-2-2-2-2---||


  Q  Q  E E +E  E   +E  +E  +E  +E  E  Q.
|-----------------|-------------------------|
|-----------------|-------------------------|
|-----------------|-------------------------|
|-2--2--2-2-(2)s4-|-(4)-(4)-(4)-(4)-4s11\---|


  Q  Q  E E +E  E   +E  E E +E  +E  E E E
|-----------------|-----------------------|
|-----------------|-----------------------|
|-----------------|-----------------------|
|-2--2--2-2-(2)-4-|-(4)-4-4-(4)-(4)-4-4-4-|


    Q  Q  E E +E  E   +E  E +E  E E E E E
||------------------|---------------------|
||o-----------------|---------------------|
||o-----------------|---------------------|
||--1--1--1-1-(1)-2-|-(2)-2-(2)-2-2-2-2-2-|


  Q  Q  E E +E  E   +E  E E +E  +E  E E E   3x
|-----------------|-------------------------||
|-----------------|------------------------o||
|-----------------|------------------------o||
|-2--2--2-2-(2)-4-|-(4)-4-4-(4)-(4)-4-4-4---||


   Outro
    E E E Q  E E E   E E E Q  E E E   E E E Q  E E E   E E E Q  E E E   4x
||-----------------|----------------|----------------|------------------||
||o----------------|----------------|----------------|-----------------o||
||o----------------|----------------|----------------|-----------------o||
||--6-6-4-6--4-6-4-|-6-6-4-6--4-6---|-6-6-4-6--4-6-4-|-6-6-4-6--4-6-----||


  Wx4
|--------*|
|--------*|
|--------*|
|--------*|


Duration Legend
---------------
W - whole; H - half; Q - quarter; E - 8th; S - 16th; T - 32nd; X - 64th; a - acciaccatura
+ - note tied to previous; . - note dotted; .. - note double dotted
Uncapitalized letters represent notes that are staccato (1/2 duration)
Irregular groupings are notated above the duration line
Duration letters will always appear directly above the note/fret number it represents the
duration for.  Duration letters with no fret number below them represent rests.  Multi-
bar rests are notated in the form Wxn, where n is the number of bars to rest for.  Low
melody durations appear below the staff

Tablature Legend
----------------
 h   - hammer-on
 p   - pull-off
 b   - bend
 pb  - pre-bend
 r   - bend release (if no number after the r, then release immediately)
 /\  - slide into or out of (from/to "nowhere")
 s   - legato slide
 S   - shift slide
  - natural harmonic
[n]  - artificial harmonic
n(n) - tapped harmonic
 ~   - vibrato
 tr  - trill
 T   - tap
 TP  - trem. picking
 PM  - palm muting
\n/  - tremolo bar dip; n = amount to dip
 \n  - tremolo bar down
 n/  - tremolo bar up
/n\  - tremolo bar inverted dip
 =   - hold bend; also acts as connecting device for hammers/pulls
 <>  - volume swell (louder/softer)
 x   - on rhythm slash represents muted slash
 o   - on rhythm slash represents single note slash

Misc Legend
-----------
 |  - bar
||  - double bar
||o - repeat start
o|| - repeat end
*|  - double bar (ending)
 :  - bar (freetime)
 $  - Segno
 &  - Coda
Tempo markers -  = BPM(8/16=s8/s16), where s8 = swing 8ths, s16 = swing 16ths
Suggest correction
What's this?
You can suggest a correction to this tab. Community and Mods will review your correction and vote to approve or reject it.
comments
We did not receive enough feedback on this tab! Please rate:
print report bad tab
1 2 3 4 5
guest
You may want to rate the tab now too:
select rating
Please do not post tabs as comments. Select "correction" instead!