Oops, an error
Loading. Please wait.

Love You Like I Do Bass Tab

version 3
version 3

Whole song

Interactive

by HIM
323 views 1 this week
no commentswrite comment
1 2 3 4 5
please rate
add to favorites
launch autoscroll
font size
0
reset
guitar tuner
Tab Pro tools
  • play this tab
  • loop segment
  • change instrument
  • show fretboard
  • metronome
×
Best way to learn
"Love You Like I Do"
Autoscroll
slow
fast
+/-
esc
set tempo
stop
Contributor
#----------------------------------PLEASE NOTE---------------------------------#
#This file is the author's own work and represents their interpretation of the #
#song. You may only use this file for private study, scholarship, or research. #
#------------------------------------------------------------------------------##

                          LOVE YOU LIKE I DO (Bassline)
                              As recorded by H.I.M.
           (From the 2001 Album DEEP SHADOWS AND BRILLIANT HIGHLIGHTS)

Words by Ville Valo

Music by H.I.M.
Arranged by H.I.M.
Transcribed by Dani69 & vitaha_z

Gtr I (E A D G) - 'Mige Amour'

 Intro
  Q=98
 4/4
  Gtr I
  H..       E   +W           H..       E   +W
|-------------|------------|-------------|--------||
|-------------|------------|-------------|--------||
|-------------|------------|-------------|--------||
|-3---------1-|-(1)--------|-3---------1-|-(1)----||


   Pre-Verse
    H    +E  E E E   +W           H    +E  E E E   +H.      Q
||-----------------|------------|----------------|--------------||
||o----------------|------------|----------------|--------------||
||o----------0-1---|------------|----------0-1---|--------------||
||--3----(3)-----1-|-(1)--------|-3----(3)-----1-|-(1)------3S==||


 Verse
   W           +H      +E   +Q.      H    +E  E E E   +H.      Q
|-----------|----------------------|----------------|---------------|
|-----------|----------------------|----------------|---------------|
|-----------|----------------------|----------0-1---|---------------|
|-15--------|-(15)----(15)-(15)\---|-3----(3)-----1-|-(1)------3S===|


   W           +H.       +Q      H    +E  E E E   +Q    Q  Q  Q
|-----------|------------------|----------------|-----------------||
|-----------|------------------|----------------|-----------------||
|-----------|------------------|----------0-1---|----------3--5---||
|-15--------|-(15)------(15)\--|-3----(3)-----1-|-(1)--/6---------||


 Chorus
  H.      E E   H    +E  E E E   H.      E E   H    H
|-------------|----------------|-------------|-----------|
|-------------|----------------|-------------|-----------|
|-6-------6h8-|------------3-5-|-6-------6h8-|-----------|
|-------------|-6----(6)-6-----|-------------|-6----5----|


  H.      E E   H    H      H    +E  E E E    H.      Q
|-------------|-----------|----------------|----------------||
|-------------|-----------|----------------|---------------o||
|-6-------6h8-|------5----|-6----(6)-6-5-6-|-/8-------8\---o||
|-------------|-6---------|----------------|----------------||


 Verse
   W           +H      +E   +Q.      H    +E  E E E   +H.      Q
|-----------|----------------------|----------------|--------------|
|-----------|----------------------|----------------|--------------|
|-----------|----------------------|----------0-1---|--------------|
|-15--------|-(15)----(15)-(15)\---|-3----(3)-----1-|-(1)------3---|


   W           +H.       +Q      H    +E  E E E   +Q    Q  Q  Q
|-----------|------------------|----------------|-----------------||
|-----------|------------------|----------------|-----------------||
|-----------|------------------|----------0-1---|----------3--5---||
|-15--------|-(15)------(15)\--|-3----(3)-----1-|-(1)--/6---------||


   Chorus
    H.      E E   H    +E  E E E   H.      E E   H    H
||--------------|----------------|-------------|-----------|
||o-------------|----------------|-------------|-----------|
||o-6-------6h8-|------------3-5-|-6-------6h8-|-----------|
||--------------|-6----(6)-6-----|-------------|-6----5----|


  H.      E E   H    H      H    +E  E E E
|-------------|-----------|----------------|
|-------------|-----------|----------------|
|-6-------6h8-|------5----|-6----(6)-6-5-6-|
|-------------|-6---------|----------------|


 1.                 2.
   H    +Q   E E      H.      Q
|-----------------||----------------||
|----------------o||----------------||
|-/8----(8)----5-o||-/8-------8\----||
|------------8----||----------------||


   Out-Chorus
    H    +E  E E E   +W           H.      E +E    E H    +E  Q    4x
||-----------------|------------|---------------|-----------------||
||o----------------|------------|---------------|----------------o||
||o----------0-1---|------------|-6-------6-(6)-|-6s8----(8)-8\--o||
||--3----(3)-----1-|-(1)--------|---------------|-----------------||


 Outro
  W          +W           +W           +W
|----------|------------|------------|--------|
|----------|------------|------------|--------|
|----------|------------|------------|--------|
|-3--------|-(3)--------|-(3)--------|-(3)----|


  +W           +W           +W           +W
|------------|------------|------------|--------|
|------------|------------|------------|--------|
|------------|------------|------------|--------|
|-(3)--------|-(3)--------|-(3)--------|-(3)----|


    H     Q    Q     Q.   E  Q.    E    H     Q    Q     Q.   E  Q.    E   4x
||-----------------|------------------|----------------|-------------------||
||o----------------|------------------|----------------|------------------o||
||o----------------|-1----0-(1)---(0)-|----------------|-1----0-(1)---(0)-o||
||--3----(3)--(3)--|------------------|-3----(3)--(3)--|-------------------||


  Wx8
|--------|
|--------|
|--------|
|--------|


              >
  W          +W           +W           +W           +W
|----------|------------|------------|------------|--------|
|----------|------------|------------|------------|--------|
|-1--------|-(1)--------|-(1)--------|-(1)--------|-(1)----|
|-3--------|-(3)--------|-(3)--------|-(3)--------|-(3)----|


  +W           +W           W          W
|------------|------------|----------|------*|
|------------|------------|----------|------*|
|-(1)--------|-(1)--------|----------|------*|
|-(3)--------|-(3)--------|----------|------*|


Duration Legend
---------------
W - whole; H - half; Q - quarter; E - 8th; S - 16th; T - 32nd; X - 64th; a - acciaccatura
+ - note tied to previous; . - note dotted; .. - note double dotted
Uncapitalized letters represent notes that are staccato (1/2 duration)
Irregular groupings are notated above the duration line
Duration letters will always appear directly above the note/fret number it represents the
duration for.  Duration letters with no fret number below them represent rests.  Multi-
bar rests are notated in the form Wxn, where n is the number of bars to rest for.  Low
melody durations appear below the staff

Tablature Legend
----------------
 h   - hammer-on
 p   - pull-off
 b   - bend
 pb  - pre-bend
 r   - bend release (if no number after the r, then release immediately)
 /\  - slide into or out of (from/to "nowhere")
 s   - legato slide
 S   - shift slide
  - natural harmonic
[n]  - artificial harmonic
n(n) - tapped harmonic
 ~   - vibrato
 tr  - trill
 T   - tap
 TP  - trem. picking
 PM  - palm muting
\n/  - tremolo bar dip; n = amount to dip
 \n  - tremolo bar down
 n/  - tremolo bar up
/n\  - tremolo bar inverted dip
 =   - hold bend; also acts as connecting device for hammers/pulls
 <>  - volume swell (louder/softer)
 x   - on rhythm slash represents muted slash
 o   - on rhythm slash represents single note slash

Misc Legend
-----------
 |  - bar
||  - double bar
||o - repeat start
o|| - repeat end
*|  - double bar (ending)
 :  - bar (freetime)
 $  - Segno
 &  - Coda
Tempo markers -  = BPM(8/16=s8/s16), where s8 = swing 8ths, s16 = swing 16ths
comments
We did not receive enough feedback on this tab! Please rate:
print report bad tab
1 2 3 4 5
I want to post or [tab]
guest
You may want to rate the tab now too:
select rating
Please do not post tabs as comments. Select "correction" instead!