Oops, an error
Loading. Please wait.

Our Diabolical Rapture Tab

by HIM
4,054 views 1 this week
2 commentsread comments
1 2 3 4 5
x 3
add to favorites
launch autoscroll
font size
0
reset
how to read this tab
guitar tuner
×
Best way to learn
"Our Diabolical Rapture"
Autoscroll
slow
fast
+/-
esc
set tempo
stop
Our Diabolical Rapture Chords by Him, www.Ultimate-Guitar.Com

HIM
Album:Greatest Lovesongs Vol.666
By Paul Younger

Our Diabolical Rapture


        RIFFI

|--------------------|
|--------------------|
|--------------------|
|--------------------| * 3
|--------------------|
|-8-6-6-8-6-6-3h5-3~-|

|--------------------|
|--------------------|
|--------------------|
|-------------5h7-5~-|
|--------------------|
|-8-6-6-8-6-6--------|


RIFFI

|---------------------------|
|---------------------------|
|---------------------------|
|-5-5-5-5-5-5-5-5-5-5-5-5-5-|
In our diabolikal rapture we live on and on
And death keeps knocking at our door
|-----------------------------------------------------|
|-----------------------------------------------------|
|-----------------------------------------------------|
|-----------------------------------------------------|
|-----------------------------------------------------|
|-8-6-6-8-6-6-----------------5-3-3-5-3-3-------------|
So we open the door and we die a bit more
We're in love with with death and we die on and on

Dm
Won't you close our eyes

|-----------------------------------------------------|
|-----------------------------------------------------|
|-----------------------------------------------------|
|-----------------------------------------------------|
|-----------------------------------------------------|
|-8-6-6-8-6-6------------------5-3-3-5-3-3------------|

Dm               F
We'll be by your side

RIFFI

|---------------------------|
|---------------------------|
|---------------------------|
|-5-5-5-5-5-5-5-5-5-5-5-5-5-|
In your heavenly rapture we die on and on
And you keep waiting at our door
|-----------------------------------------------------|
|-----------------------------------------------------|
|-----------------------------------------------------|
|-----------------------------------------------------|
|-----------------------------------------------------|
|-8-6-6-8-6-6------------------5-3-3-5-3-3------------|
Yes - we open the door, let us die a bit more
Because we're in love with you and we die on and on

Dm
Won't you close our eyes, eyes

|-----------------------------------------------------|
|-----------------------------------------------------|
|-----------------------------------------------------|
|-----------------------------------------------------|
|-----------------------------------------------------|
|-8-6-6-8-6-6------------------5-3-3-5-3-3------------|

Dm               F
We'll be by your side

A#5  G#5         C#5  D#5
Your love is the only thing I
live for in this world
Oh how I wait for the day
Your heart burns
In these heavenly flames I've
Already scorched in                        F5
I just want you to know I'll always be waiting

D5   C5          F5   G5
Your love is the only thing I
                         |--------|
                         |--------|
                         |--------|
                         |--------|
                         |--------|
D5       C5      F5 G5   |-5~---1-|
live for in this world
Oh how I wait for the day your heart burns
In these heavenly flames I've already scorched in
I just want you to know I'll always be waiting
Suggest correction
Give kudos to tab author, rate the tab!
1 2 3 4 5
comments
print report bad tab
2 comments total.
0 reply
skatersic666 557 Feb 15, 2006 08:47 AM

for the intro try this:

:INTRO:
|N.C || x11|
|--------------------------------||----------------------------------|
|--------------------------------||----------------------------------|
|--------------------------------||----------------------------------|
|--------------------------------||----------------------------------|
|--------------------------------||----------------------------------|
|-8-5-5--7-5-5--6-5-5--0--3/5--3-||-5--8-5-5--7-5-5--6-5-5--0--3/5-3-|

I also have worked out more of the song, i might put it up sometime in the furture

0 reply
helsinkivampire 293 Apr 25, 2010 09:42 PM

Just to let everyone know this song is recorded in Drop A.
This is the top string notes at the intro. 100% sure

A|-15p0-0-14p0-0-12p0-0-10h12-10--|

All the rhythm chords are correct though. good job

guest
You may want to rate the tab now too:
select rating
Wanna post a correction for this tab? Suggest correction