Oops, an error
Loading. Please wait.

Passions Killing Floor Bass Tab

version 2
version 2

Whole song

Interactive

by HIM
125 views 1 this week
no commentswrite comment
1 2 3 4 5
please rate
add to favorites
launch autoscroll
font size
0
reset
guitar tuner
Autoscroll
slow
fast
+/-
esc
set tempo
stop
Help us to improve Ultimate-Guitar.com Take our survey!
×
Difficulty
intermediate
song:Passions Killing Floor
band:HIM
album:Venus Doom

Guitar plays intro riff x2 then Mige joins in with this

Intro:
D-------------------------------------------------------------------------|
A---4--4--4--2---2p0--------------------2--2--0---------------------------|x3
E-2--2--2--2-----------4---------------0--0--0--0--2h4--0-----------------|
B-------------------------------------------------------------------------|


Verse:
D---------------------------------------------------------------------------|
A---------------------------------------------------------------------------|
E-00--00--00-----22-22-22-22-----00--00--00---------44—44—44-44----4/12/6---|
B---------------------------------------------------------------------------|


Pre Chorus:
D---------------------------------------------------------------------------|
A-5-4-0---------------5-4-0-------------------------------------------------|
E-----------0-4-2----------------00-00-00-00------5--4/5--0--2--------------|
B---------------------------------------------------------------------------|


Chorus:
D---------------------------------------------------------------------------|
A---------------------------------------------------------------------------|
E---2222222222222222--------------------------------------------------------|
B----------------------0000000000000000---3333333333333333------------------|

D------------------------|
A------------------------|  X2
E---55555555-----0~------|
B------------------------|

Intro x2
Verse
Pre chorus
Chorus


Breakdown 2x
D-----------------------------------------|
A-----------------------------------------| x2
E---44-44-44-4/7------22-22-22-2/7-5-7-4--|
B-----------------------------------------|

D--------------------|
A--------------------|  X2
E--------------------|
B-0-1-0-3~--0-1-0-6~-|


D------------------------------------------------------------------------|
A------------------------------------------------------------------------| x2
E--0-1-0-3-6-8--6-3------0-1-0-3-6-8--10--8------------------------------|
B------------------------------------------------------------------------|

D---------------------------------------------------------------------------|
A--------2-3-------------------2--------------------------------------------|
E--0-2-3-----------------0-2-3----------------------------------------------|
B---------------0-00-00-------------0-00-0000-------------------------------|

Play chorus again then the intro until the end of the song
Suggest correction new What's this?
You can suggest a correction to this tab. Community and Mods will review your correction and vote to approve or reject it.
comments
We did not receive enough feedback on this tab! Please rate:
print report bad tab
1 2 3 4 5
guest
You may want to rate the tab now too:
select rating
Please do not post tabs as comments. Select "correction" instead!